  0
SECTION
  2
HEADER
  9
$ACADVER
  1
AC1015
  9
$ACADMAINTVER
 70
     6
  9
$DWGCODEPAGE
  3
ANSI_1252
  9
$INSBASE
 10
0.0
 20
0.0
 30
0.0
  9
$EXTMIN
 10
0.0
 20
0.0
 30
0.0
  9
$EXTMAX
 10
11.0
 20
8.5
 30
0.0
  9
$LIMMIN
 10
0.0
 20
0.0
  9
$LIMMAX
 10
11.0
 20
8.5
  9
$ORTHOMODE
 70
     0
  9
$REGENMODE
 70
     1
  9
$FILLMODE
 70
     1
  9
$QTEXTMODE
 70
     0
  9
$MIRRTEXT
 70
     1
  9
$LTSCALE
 40
1.0
  9
$ATTMODE
 70
     1
  9
$TEXTSIZE
 40
0.1666666667
  9
$TRACEWID
 40
0.05
  9
$TEXTSTYLE
  7
Standard
  9
$CLAYER
  8
0
  9
$CELTYPE
  6
ByLayer
  9
$CECOLOR
 62
   256
  9
$CELTSCALE
 40
1.0
  9
$DISPSILH
 70
     0
  9
$DIMSCALE
 40
1.0
  9
$DIMASZ
 40
0.09
  9
$DIMEXO
 40
0.05
  9
$DIMDLI
 40
0.38
  9
$DIMRND
 40
0.0
  9
$DIMDLE
 40
0.0
  9
$DIMEXE
 40
0.0625
  9
$DIMTP
 40
0.0
  9
$DIMTM
 40
0.0
  9
$DIMTXT
 40
0.1666666667
  9
$DIMCEN
 40
0.09
  9
$DIMTSZ
 40
0.0
  9
$DIMTOL
 70
     0
  9
$DIMLIM
 70
     0
  9
$DIMTIH
 70
     1
  9
$DIMTOH
 70
     1
  9
$DIMSE1
 70
     0
  9
$DIMSE2
 70
     0
  9
$DIMTAD
 70
     0
  9
$DIMZIN
 70
     0
  9
$DIMBLK
  1

  9
$DIMASO
 70
     1
  9
$DIMSHO
 70
     1
  9
$DIMPOST
  1

  9
$DIMAPOST
  1

  9
$DIMALT
 70
     0
  9
$DIMALTD
 70
     2
  9
$DIMALTF
 40
25.4
  9
$DIMLFAC
 40
1.0
  9
$DIMTOFL
 70
     0
  9
$DIMTVP
 40
0.0
  9
$DIMTIX
 70
     0
  9
$DIMSOXD
 70
     0
  9
$DIMSAH
 70
     0
  9
$DIMBLK1
  1

  9
$DIMBLK2
  1

  9
$DIMSTYLE
  2
Standard
  9
$DIMCLRD
 70
     0
  9
$DIMCLRE
 70
     0
  9
$DIMCLRT
 70
     0
  9
$DIMTFAC
 40
1.0
  9
$DIMGAP
 40
0.06
  9
$DIMJUST
 70
     0
  9
$DIMSD1
 70
     0
  9
$DIMSD2
 70
     0
  9
$DIMTOLJ
 70
     1
  9
$DIMTZIN
 70
     0
  9
$DIMALTZ
 70
     0
  9
$DIMALTTZ
 70
     0
  9
$DIMUPT
 70
     0
  9
$DIMDEC
 70
     2
  9
$DIMTDEC
 70
     2
  9
$DIMALTU
 70
     2
  9
$DIMALTTD
 70
     2
  9
$DIMTXSTY
  7
Standard
  9
$DIMAUNIT
 70
     0
  9
$DIMADEC
 70
     0
  9
$DIMALTRND
 40
0.0
  9
$DIMAZIN
 70
     0
  9
$DIMDSEP
 70
    46
  9
$DIMATFIT
 70
     3
  9
$DIMFRAC
 70
     0
  9
$DIMLDRBLK
  1

  9
$DIMLUNIT
 70
     2
  9
$DIMLWD
 70
    -2
  9
$DIMLWE
 70
    -2
  9
$DIMTMOVE
 70
     0
  9
$LUNITS
 70
     2
  9
$LUPREC
 70
     2
  9
$SKETCHINC
 40
0.1
  9
$FILLETRAD
 40
0.5
  9
$AUNITS
 70
     0
  9
$AUPREC
 70
     0
  9
$MENU
  1
.
  9
$ELEVATION
 40
0.0
  9
$PELEVATION
 40
0.0
  9
$THICKNESS
 40
0.0
  9
$LIMCHECK
 70
     0
  9
$CHAMFERA
 40
0.5
  9
$CHAMFERB
 40
0.5
  9
$CHAMFERC
 40
1.0
  9
$CHAMFERD
 40
0.0
  9
$SKPOLY
 70
     0
  9
$TDCREATE
 40
2455764.68107897
  9
$TDUCREATE
 40
2455764.889412303
  9
$TDUPDATE
 40
2455764.681078982
  9
$TDUUPDATE
 40
2455764.889412315
  9
$TDINDWG
 40
0.0000000116
  9
$TDUSRTIMER
 40
0.0000000116
  9
$USRTIMER
 70
     1
  9
$ANGBASE
 50
0.0
  9
$ANGDIR
 70
     0
  9
$PDMODE
 70
     0
  9
$PDSIZE
 40
-1.0
  9
$PLINEWID
 40
0.0
  9
$SPLFRAME
 70
     0
  9
$SPLINETYPE
 70
     6
  9
$SPLINESEGS
 70
     8
  9
$HANDSEED
  5
561
  9
$SURFTAB1
 70
     6
  9
$SURFTAB2
 70
     6
  9
$SURFTYPE
 70
     6
  9
$SURFU
 70
     6
  9
$SURFV
 70
     6
  9
$UCSBASE
  2

  9
$UCSNAME
  2

  9
$UCSORG
 10
0.0
 20
0.0
 30
0.0
  9
$UCSXDIR
 10
1.0
 20
0.0
 30
0.0
  9
$UCSYDIR
 10
0.0
 20
1.0
 30
0.0
  9
$UCSORTHOREF
  2

  9
$UCSORTHOVIEW
 70
     0
  9
$UCSORGTOP
 10
0.0
 20
0.0
 30
0.0
  9
$UCSORGBOTTOM
 10
0.0
 20
0.0
 30
0.0
  9
$UCSORGLEFT
 10
0.0
 20
0.0
 30
0.0
  9
$UCSORGRIGHT
 10
0.0
 20
0.0
 30
0.0
  9
$UCSORGFRONT
 10
0.0
 20
0.0
 30
0.0
  9
$UCSORGBACK
 10
0.0
 20
0.0
 30
0.0
  9
$PUCSBASE
  2

  9
$PUCSNAME
  2

  9
$PUCSORG
 10
0.0
 20
0.0
 30
0.0
  9
$PUCSXDIR
 10
1.0
 20
0.0
 30
0.0
  9
$PUCSYDIR
 10
0.0
 20
1.0
 30
0.0
  9
$PUCSORTHOREF
  2

  9
$PUCSORTHOVIEW
 70
     0
  9
$PUCSORGTOP
 10
0.0
 20
0.0
 30
0.0
  9
$PUCSORGBOTTOM
 10
0.0
 20
0.0
 30
0.0
  9
$PUCSORGLEFT
 10
0.0
 20
0.0
 30
0.0
  9
$PUCSORGRIGHT
 10
0.0
 20
0.0
 30
0.0
  9
$PUCSORGFRONT
 10
0.0
 20
0.0
 30
0.0
  9
$PUCSORGBACK
 10
0.0
 20
0.0
 30
0.0
  9
$USERI1
 70
     0
  9
$USERI2
 70
     0
  9
$USERI3
 70
     0
  9
$USERI4
 70
     0
  9
$USERI5
 70
     0
  9
$USERR1
 40
0.0
  9
$USERR2
 40
0.0
  9
$USERR3
 40
0.0
  9
$USERR4
 40
0.0
  9
$USERR5
 40
0.0
  9
$WORLDVIEW
 70
     1
  9
$SHADEDGE
 70
     3
  9
$SHADEDIF
 70
    70
  9
$TILEMODE
 70
     1
  9
$MAXACTVP
 70
    64
  9
$PINSBASE
 10
0.0
 20
0.0
 30
0.0
  9
$PLIMCHECK
 70
     0
  9
$PEXTMIN
 10
1.0000000000E+20
 20
1.0000000000E+20
 30
1.0000000000E+20
  9
$PEXTMAX
 10
-1.0000000000E+20
 20
-1.0000000000E+20
 30
-1.0000000000E+20
  9
$PLIMMIN
 10
0.0
 20
0.0
  9
$PLIMMAX
 10
12.0
 20
9.0
  9
$UNITMODE
 70
     0
  9
$VISRETAIN
 70
     1
  9
$PLINEGEN
 70
     0
  9
$PSLTSCALE
 70
     1
  9
$TREEDEPTH
 70
  3020
  9
$CMLSTYLE
  2
Standard
  9
$CMLJUST
 70
     0
  9
$CMLSCALE
 40
1.0
  9
$PROXYGRAPHICS
 70
     1
  9
$MEASUREMENT
 70
     0
  9
$CELWEIGHT
370
    -1
  9
$ENDCAPS
280
     0
  9
$JOINSTYLE
280
     0
  9
$LWDISPLAY
290
     1
  9
$INSUNITS
 70
     1
  9
$HYPERLINKBASE
  1

  9
$STYLESHEET
  1

  9
$XEDIT
290
     1
  9
$CEPSNTYPE
380
     0
  9
$PSTYLEMODE
290
     1
  9
$FINGERPRINTGUID
  2
{3F4D398F-8841-4337-B7A3-B7D2F84756DE}
  9
$VERSIONGUID
  2
{FAEB1C32-E019-11D5-929B-00C0DF256EC4}
  9
$EXTNAMES
290
     1
  9
$PSVPSCALE
 40
0.0
  9
$OLESTARTUP
290
     0
  0
ENDSEC
  0
SECTION
  2
CLASSES
  0
CLASS
  1
ACDBDICTIONARYWDFLT
  2
AcDbDictionaryWithDefault
  3
ObjectDBX Classes
 90
        0
280
     0
281
     0
  0
CLASS
  1
VISUALSTYLE
  2
AcDbVisualStyle
  3
ObjectDBX Classes
 90
     4095
280
     0
281
     0
  0
CLASS
  1
MATERIAL
  2
AcDbMaterial
  3
ObjectDBX Classes
 90
     1153
280
     0
281
     0
  0
CLASS
  1
ACDBPLACEHOLDER
  2
AcDbPlaceHolder
  3
ObjectDBX Classes
 90
        0
280
     0
281
     0
  0
CLASS
  1
LAYOUT
  2
AcDbLayout
  3
ObjectDBX Classes
 90
        0
280
     0
281
     0
  0
ENDSEC
  0
SECTION
  2
TABLES
  0
TABLE
  2
VPORT
  5
8
330
0
100
AcDbSymbolTable
 70
     1
  0
VPORT
  5
29
330
8
100
AcDbSymbolTableRecord
100
AcDbViewportTableRecord
  2
*Active
 70
     0
 10
0.0
 20
0.0
 11
1.0
 21
1.0
 12
5.5
 22
4.25
 13
0.0
 23
0.0
 14
0.5
 24
0.5
 15
0.5
 25
0.5
 16
0.0
 26
0.0
 36
1.0
 17
0.0
 27
0.0
 37
0.0
 40
8.5
 41
1.2941176471
 42
50.0
 43
0.0
 44
0.0
 50
0.0
 51
0.0
 71
     0
 72
  2000
 73
     1
 74
     3
 75
     0
 76
     0
 77
     0
 78
     0
281
     0
 65
     1
110
0.0
120
0.0
130
0.0
111
1.0
121
0.0
131
0.0
112
0.0
122
1.0
132
0.0
 79
     0
146
0.0
  0
ENDTAB
  0
TABLE
  2
LTYPE
  5
5
330
0
100
AcDbSymbolTable
 70
     6
  0
LTYPE
  5
14
330
5
100
AcDbSymbolTableRecord
100
AcDbLinetypeTableRecord
  2
ByBlock
 70
     0
  3

 72
    65
 73
     0
 40
0.0
  0
LTYPE
  5
15
330
5
100
AcDbSymbolTableRecord
100
AcDbLinetypeTableRecord
  2
ByLayer
 70
     0
  3

 72
    65
 73
     0
 40
0.0
  0
LTYPE
  5
16
330
5
100
AcDbSymbolTableRecord
100
AcDbLinetypeTableRecord
  2
Continuous
 70
     0
  3
Solid line
 72
    65
 73
     0
 40
0.0
  0
LTYPE
  5
3F
330
5
100
AcDbSymbolTableRecord
100
AcDbLinetypeTableRecord
  2
HIDDEN
 70
     0
  3
Hidden __ __ __ __ __ __ __ __ __ __ __ __ __ __
 72
    65
 73
     2
 40
0.075
 49
0.05
 74
     0
 49
-0.025
 74
     0
  0
LTYPE
  5
40
330
5
100
AcDbSymbolTableRecord
100
AcDbLinetypeTableRecord
  2
PHANTOM
 70
     0
  3
Phantom ______  __  __  ______  __  __  ______
 72
    65
 73
     6
 40
0.5
 49
0.25
 74
     0
 49
-0.05
 74
     0
 49
0.05
 74
     0
 49
-0.05
 74
     0
 49
0.05
 74
     0
 49
-0.05
 74
     0
  0
LTYPE
  5
41
330
5
100
AcDbSymbolTableRecord
100
AcDbLinetypeTableRecord
  2
CENTER
 70
     0
  3
Center ____ _ ____ _ ____ _ ____ _ ____ _ ____
 72
    65
 73
     4
 40
0.4
 49
0.25
 74
     0
 49
-0.05
 74
     0
 49
0.05
 74
     0
 49
-0.05
 74
     0
  0
LTYPE
  5
42
330
5
100
AcDbSymbolTableRecord
100
AcDbLinetypeTableRecord
  2
CENTERX2
 70
     0
  3
Center (2x) ________  __  ________  __  _____
 72
    65
 73
     4
 40
0.8
 49
0.5
 74
     0
 49
-0.1
 74
     0
 49
0.1
 74
     0
 49
-0.1
 74
     0
  0
LTYPE
  5
43
330
5
100
AcDbSymbolTableRecord
100
AcDbLinetypeTableRecord
  2
DOT2
 70
     0
  3
Dot (.5x) ........................................
 72
    65
 73
     2
 40
0.025
 49
0.0
 74
     0
 49
-0.025
 74
     0
  0
ENDTAB
  0
TABLE
  2
LAYER
  5
2
330
0
100
AcDbSymbolTable
 70
     2
  0
LAYER
  5
10
330
2
100
AcDbSymbolTableRecord
100
AcDbLayerTableRecord
  2
0
 70
     0
 62
     7
  6
Continuous
370
    -3
390
F
  0
LAYER
  5
44
330
2
100
AcDbSymbolTableRecord
100
AcDbLayerTableRecord
  2
FORMAT
 70
     0
 62
     7
  6
Continuous
370
    -3
390
F
  0
ENDTAB
  0
TABLE
  2
STYLE
  5
3
330
0
100
AcDbSymbolTable
 70
     2
  0
STYLE
  5
11
330
3
100
AcDbSymbolTableRecord
100
AcDbTextStyleTableRecord
  2
Standard
 70
     0
 40
0.0
 41
1.0
 50
0.0
 71
     0
 42
0.2
  3
txt
  4

  0
STYLE
  5
55F
330
3
100
AcDbSymbolTableRecord
100
AcDbTextStyleTableRecord
  2
SLDTEXTSTYLE0
 70
     0
 40
0.0
 41
0.605
 50
0.0
 71
     0
 42
0.2
  3
TXT
  4

  0
ENDTAB
  0
TABLE
  2
VIEW
  5
6
330
0
100
AcDbSymbolTable
 70
     0
  0
ENDTAB
  0
TABLE
  2
UCS
  5
7
330
0
100
AcDbSymbolTable
 70
     0
  0
ENDTAB
  0
TABLE
  2
APPID
  5
9
330
0
100
AcDbSymbolTable
 70
     1
  0
APPID
  5
12
330
9
100
AcDbSymbolTableRecord
100
AcDbRegAppTableRecord
  2
ACAD
 70
     0
  0
ENDTAB
  0
TABLE
  2
DIMSTYLE
  5
A
330
0
100
AcDbSymbolTable
 70
     1
100
AcDbDimStyleTable
  0
DIMSTYLE
105
27
330
A
100
AcDbSymbolTableRecord
100
AcDbDimStyleTableRecord
  2
Standard
 70
     0
178
     0
340
11
  0
ENDTAB
  0
TABLE
  2
BLOCK_RECORD
  5
1
330
0
100
AcDbSymbolTable
 70
     1
  0
BLOCK_RECORD
  5
1F
330
1
100
AcDbSymbolTableRecord
100
AcDbBlockTableRecord
  2
*Model_Space
340
22
  0
BLOCK_RECORD
  5
1B
330
1
100
AcDbSymbolTableRecord
100
AcDbBlockTableRecord
  2
*Paper_Space
340
1E
  0
BLOCK_RECORD
  5
23
330
1
100
AcDbSymbolTableRecord
100
AcDbBlockTableRecord
  2
*Paper_Space0
340
26
  0
ENDTAB
  0
ENDSEC
  0
SECTION
  2
BLOCKS
  0
BLOCK
  5
20
330
1F
100
AcDbEntity
  8
0
100
AcDbBlockBegin
  2
*Model_Space
 70
     0
 10
0.0
 20
0.0
 30
0.0
  3
*Model_Space
  1

  0
ENDBLK
  5
21
330
1F
100
AcDbEntity
  8
0
100
AcDbBlockEnd
  0
BLOCK
  5
1C
330
1B
100
AcDbEntity
 67
     1
  8
0
100
AcDbBlockBegin
  2
*Paper_Space
 70
     0
 10
0.0
 20
0.0
 30
0.0
  3
*Paper_Space
  1

  0
ENDBLK
  5
1D
330
1B
100
AcDbEntity
 67
     1
  8
0
100
AcDbBlockEnd
  0
BLOCK
  5
24
330
23
100
AcDbEntity
  8
0
100
AcDbBlockBegin
  2
*Paper_Space0
 70
     0
 10
0.0
 20
0.0
 30
0.0
  3
*Paper_Space0
  1

  0
ENDBLK
  5
25
330
23
100
AcDbEntity
  8
0
100
AcDbBlockEnd
  0
ENDSEC
  0
SECTION
  2
ENTITIES
  0
LINE
  5
45
330
1F
100
AcDbEntity
  8
0
  6
Continuous
 62
     7
370
    30
100
AcDbLine
 10
2.7035576976
 20
4.9532535639
 30
0.0
 11
2.7035576976
 21
4.9451682977
 31
0.0
  0
LINE
  5
46
330
1F
100
AcDbEntity
  8
0
  6
Continuous
 62
     7
370
    30
100
AcDbLine
 10
2.7035576976
 20
4.9180301399
 30
0.0
 11
2.7035576976
 21
4.9099448735
 31
0.0
  0
LINE
  5
47
330
1F
100
AcDbEntity
  8
0
  6
Continuous
 62
     7
370
    30
100
AcDbLine
 10
2.7035576976
 20
4.8828067158
 30
0.0
 11
2.7035576976
 21
4.8747214517
 31
0.0
  0
LINE
  5
48
330
1F
100
AcDbEntity
  8
0
  6
Continuous
 62
     7
370
    30
100
AcDbLine
 10
2.7035576976
 20
4.8475832894
 30
0.0
 11
2.7035576976
 21
4.8394980253
 31
0.0
  0
LINE
  5
49
330
1F
100
AcDbEntity
  8
0
  6
Continuous
 62
     7
370
    30
100
AcDbLine
 10
2.7035576976
 20
4.8123598721
 30
0.0
 11
2.7035576976
 21
4.804274608
 31
0.0
  0
LINE
  5
4A
330
1F
100
AcDbEntity
  8
0
  6
Continuous
 62
     7
370
    30
100
AcDbLine
 10
2.7035576976
 20
4.7771364457
 30
0.0
 11
2.7035576976
 21
4.7768942285
 31
0.0
  0
LINE
  5
4B
330
1F
100
AcDbEntity
  8
0
  6
Continuous
 62
     7
370
    30
100
AcDbLine
 10
2.8875577053
 20
4.7884233236
 30
0.0
 11
2.8875577053
 21
4.7965442548
 31
0.0
  0
LINE
  5
4C
330
1F
100
AcDbEntity
  8
0
  6
Continuous
 62
     7
370
    30
100
AcDbLine
 10
2.8875577053
 20
4.82364675
 30
0.0
 11
2.8875577053
 21
4.8317676812
 31
0.0
  0
LINE
  5
4D
330
1F
100
AcDbEntity
  8
0
  6
Continuous
 62
     7
370
    30
100
AcDbLine
 10
2.8875577053
 20
4.8588701673
 30
0.0
 11
2.8875577053
 21
4.8669911077
 31
0.0
  0
LINE
  5
4E
330
1F
100
AcDbEntity
  8
0
  6
Continuous
 62
     7
370
    30
100
AcDbLine
 10
2.8875577053
 20
4.8940935937
 30
0.0
 11
2.8875577053
 21
4.9022145295
 31
0.0
  0
LINE
  5
4F
330
1F
100
AcDbEntity
  8
0
  6
Continuous
 62
     7
370
    30
100
AcDbLine
 10
2.8875577053
 20
4.9293170179
 30
0.0
 11
2.8875577053
 21
4.9374379502
 31
0.0
  0
LINE
  5
50
330
1F
100
AcDbEntity
  8
0
  6
Continuous
 62
     7
370
    30
100
AcDbLine
 10
6.4955576787
 20
5.0360442406
 30
0.0
 11
6.4955576787
 21
5.0518942325
 31
0.0
  0
LINE
  5
51
330
1F
100
AcDbEntity
  8
0
  6
Continuous
 62
     7
370
    30
100
AcDbLine
 10
6.0955577129
 20
5.0518942325
 30
0.0
 11
6.0955577129
 21
5.0360442406
 31
0.0
  0
LINE
  5
52
330
1F
100
AcDbEntity
  8
0
  6
Continuous
 62
     7
370
    30
100
AcDbLine
 10
6.203557692
 20
5.0268942346
 30
0.0
 11
6.203557692
 21
4.9638942338
 31
0.0
  0
LINE
  5
53
330
1F
100
AcDbEntity
  8
0
  6
Continuous
 62
     7
370
    30
100
AcDbLine
 10
6.203557692
 20
4.9532535639
 30
0.0
 11
6.203557692
 21
4.9451682977
 31
0.0
  0
LINE
  5
54
330
1F
100
AcDbEntity
  8
0
  6
Continuous
 62
     7
370
    30
100
AcDbLine
 10
6.203557692
 20
4.9180301399
 30
0.0
 11
6.203557692
 21
4.9099448735
 31
0.0
  0
LINE
  5
55
330
1F
100
AcDbEntity
  8
0
  6
Continuous
 62
     7
370
    30
100
AcDbLine
 10
6.203557692
 20
4.8828067158
 30
0.0
 11
6.203557692
 21
4.8747214517
 31
0.0
  0
LINE
  5
56
330
1F
100
AcDbEntity
  8
0
  6
Continuous
 62
     7
370
    30
100
AcDbLine
 10
6.203557692
 20
4.8475832894
 30
0.0
 11
6.203557692
 21
4.8394980253
 31
0.0
  0
LINE
  5
57
330
1F
100
AcDbEntity
  8
0
  6
Continuous
 62
     7
370
    30
100
AcDbLine
 10
6.203557692
 20
4.8123598721
 30
0.0
 11
6.203557692
 21
4.804274608
 31
0.0
  0
LINE
  5
58
330
1F
100
AcDbEntity
  8
0
  6
Continuous
 62
     7
370
    30
100
AcDbLine
 10
6.203557692
 20
4.7771364457
 30
0.0
 11
6.203557692
 21
4.7768942285
 31
0.0
  0
LINE
  5
59
330
1F
100
AcDbEntity
  8
0
  6
Continuous
 62
     7
370
    30
100
AcDbLine
 10
6.3875576997
 20
4.7884233236
 30
0.0
 11
6.3875576997
 21
4.7965442548
 31
0.0
  0
LINE
  5
5A
330
1F
100
AcDbEntity
  8
0
  6
Continuous
 62
     7
370
    30
100
AcDbLine
 10
6.3875576997
 20
4.82364675
 30
0.0
 11
6.3875576997
 21
4.8317676812
 31
0.0
  0
LINE
  5
5B
330
1F
100
AcDbEntity
  8
0
  6
Continuous
 62
     7
370
    30
100
AcDbLine
 10
6.3875576997
 20
4.8588701673
 30
0.0
 11
6.3875576997
 21
4.8669911077
 31
0.0
  0
LINE
  5
5C
330
1F
100
AcDbEntity
  8
0
  6
Continuous
 62
     7
370
    30
100
AcDbLine
 10
6.3875576997
 20
4.8940935937
 30
0.0
 11
6.3875576997
 21
4.9022145295
 31
0.0
  0
LINE
  5
5D
330
1F
100
AcDbEntity
  8
0
  6
Continuous
 62
     7
370
    30
100
AcDbLine
 10
6.3875576997
 20
4.9293170179
 30
0.0
 11
6.3875576997
 21
4.9374379502
 31
0.0
  0
LINE
  5
5E
330
1F
100
AcDbEntity
  8
0
  6
Continuous
 62
     7
370
    30
100
AcDbLine
 10
6.3875576997
 20
4.9638942338
 30
0.0
 11
6.3875576997
 21
5.0268942346
 31
0.0
  0
LINE
  5
5F
330
1F
100
AcDbEntity
  8
0
  6
Continuous
 62
     7
370
    30
100
AcDbLine
 10
4.4535576948
 20
4.9532535639
 30
0.0
 11
4.4535576948
 21
4.9451682977
 31
0.0
  0
LINE
  5
60
330
1F
100
AcDbEntity
  8
0
  6
Continuous
 62
     7
370
    30
100
AcDbLine
 10
4.4535576948
 20
4.9180301399
 30
0.0
 11
4.4535576948
 21
4.9099448735
 31
0.0
  0
LINE
  5
61
330
1F
100
AcDbEntity
  8
0
  6
Continuous
 62
     7
370
    30
100
AcDbLine
 10
4.4535576948
 20
4.8828067158
 30
0.0
 11
4.4535576948
 21
4.8747214517
 31
0.0
  0
LINE
  5
62
330
1F
100
AcDbEntity
  8
0
  6
Continuous
 62
     7
370
    30
100
AcDbLine
 10
4.4535576948
 20
4.8475832894
 30
0.0
 11
4.4535576948
 21
4.8394980253
 31
0.0
  0
LINE
  5
63
330
1F
100
AcDbEntity
  8
0
  6
Continuous
 62
     7
370
    30
100
AcDbLine
 10
4.4535576948
 20
4.8123598721
 30
0.0
 11
4.4535576948
 21
4.804274608
 31
0.0
  0
LINE
  5
64
330
1F
100
AcDbEntity
  8
0
  6
Continuous
 62
     7
370
    30
100
AcDbLine
 10
4.4535576948
 20
4.7771364457
 30
0.0
 11
4.4535576948
 21
4.7768942285
 31
0.0
  0
LINE
  5
65
330
1F
100
AcDbEntity
  8
0
  6
Continuous
 62
     7
370
    30
100
AcDbLine
 10
4.6375577025
 20
4.7884233236
 30
0.0
 11
4.6375577025
 21
4.7965442548
 31
0.0
  0
LINE
  5
66
330
1F
100
AcDbEntity
  8
0
  6
Continuous
 62
     7
370
    30
100
AcDbLine
 10
4.6375577025
 20
4.82364675
 30
0.0
 11
4.6375577025
 21
4.8317676812
 31
0.0
  0
LINE
  5
67
330
1F
100
AcDbEntity
  8
0
  6
Continuous
 62
     7
370
    30
100
AcDbLine
 10
4.6375577025
 20
4.8588701673
 30
0.0
 11
4.6375577025
 21
4.8669911077
 31
0.0
  0
LINE
  5
68
330
1F
100
AcDbEntity
  8
0
  6
Continuous
 62
     7
370
    30
100
AcDbLine
 10
4.6375577025
 20
4.8940935937
 30
0.0
 11
4.6375577025
 21
4.9022145295
 31
0.0
  0
LINE
  5
69
330
1F
100
AcDbEntity
  8
0
  6
Continuous
 62
     7
370
    30
100
AcDbLine
 10
4.6375577025
 20
4.9293170179
 30
0.0
 11
4.6375577025
 21
4.9374379502
 31
0.0
  0
LINE
  5
6A
330
1F
100
AcDbEntity
  8
0
  6
Continuous
 62
     7
370
    30
100
AcDbLine
 10
7.9535576891
 20
4.9532535639
 30
0.0
 11
7.9535576891
 21
4.9451682977
 31
0.0
  0
LINE
  5
6B
330
1F
100
AcDbEntity
  8
0
  6
Continuous
 62
     7
370
    30
100
AcDbLine
 10
7.9535576891
 20
4.9180301399
 30
0.0
 11
7.9535576891
 21
4.9099448735
 31
0.0
  0
LINE
  5
6C
330
1F
100
AcDbEntity
  8
0
  6
Continuous
 62
     7
370
    30
100
AcDbLine
 10
7.9535576891
 20
4.8828067158
 30
0.0
 11
7.9535576891
 21
4.8747214517
 31
0.0
  0
LINE
  5
6D
330
1F
100
AcDbEntity
  8
0
  6
Continuous
 62
     7
370
    30
100
AcDbLine
 10
7.9535576891
 20
4.8475832894
 30
0.0
 11
7.9535576891
 21
4.8394980253
 31
0.0
  0
LINE
  5
6E
330
1F
100
AcDbEntity
  8
0
  6
Continuous
 62
     7
370
    30
100
AcDbLine
 10
7.9535576891
 20
4.8123598721
 30
0.0
 11
7.9535576891
 21
4.804274608
 31
0.0
  0
LINE
  5
6F
330
1F
100
AcDbEntity
  8
0
  6
Continuous
 62
     7
370
    30
100
AcDbLine
 10
7.9535576891
 20
4.7771364457
 30
0.0
 11
7.9535576891
 21
4.7768942285
 31
0.0
  0
LINE
  5
70
330
1F
100
AcDbEntity
  8
0
  6
Continuous
 62
     7
370
    30
100
AcDbLine
 10
8.1375576969
 20
4.7884233236
 30
0.0
 11
8.1375576969
 21
4.7965442548
 31
0.0
  0
LINE
  5
71
330
1F
100
AcDbEntity
  8
0
  6
Continuous
 62
     7
370
    30
100
AcDbLine
 10
8.1375576969
 20
4.82364675
 30
0.0
 11
8.1375576969
 21
4.8317676812
 31
0.0
  0
LINE
  5
72
330
1F
100
AcDbEntity
  8
0
  6
Continuous
 62
     7
370
    30
100
AcDbLine
 10
8.1375576969
 20
4.8588701673
 30
0.0
 11
8.1375576969
 21
4.8669911077
 31
0.0
  0
LINE
  5
73
330
1F
100
AcDbEntity
  8
0
  6
Continuous
 62
     7
370
    30
100
AcDbLine
 10
8.1375576969
 20
4.8940935937
 30
0.0
 11
8.1375576969
 21
4.9022145295
 31
0.0
  0
LINE
  5
74
330
1F
100
AcDbEntity
  8
0
  6
Continuous
 62
     7
370
    30
100
AcDbLine
 10
8.1375576969
 20
4.9293170179
 30
0.0
 11
8.1375576969
 21
4.9374379502
 31
0.0
  0
LINE
  5
75
330
1F
100
AcDbEntity
  8
0
  6
Continuous
 62
     7
370
    30
100
AcDbLine
 10
1.5543499333
 20
3.8722677405
 30
0.0
 11
1.5509094664
 21
3.8762257147
 31
0.0
  0
LINE
  5
76
330
1F
100
AcDbEntity
  8
0
  6
Continuous
 62
     7
370
    30
100
AcDbLine
 10
1.414205979
 20
3.8762257147
 30
0.0
 11
1.4107652187
 21
3.8722677405
 31
0.0
  0
LINE
  5
77
330
1F
100
AcDbEntity
  8
0
  6
Continuous
 62
     7
370
    30
100
AcDbLine
 10
1.5655577772
 20
4.3846829243
 30
0.0
 11
1.543557738
 21
4.3973846243
 31
0.0
  0
LINE
  5
78
330
1F
100
AcDbEntity
  8
0
  6
Continuous
 62
     7
370
    30
100
AcDbLine
 10
1.4215577074
 20
4.3973846243
 30
0.0
 11
1.3995576682
 21
4.3846829243
 31
0.0
  0
LINE
  5
79
330
1F
100
AcDbEntity
  8
0
  6
Continuous
 62
     7
370
    30
100
AcDbLine
 10
1.3995576682
 20
4.6069051439
 30
0.0
 11
1.4215577074
 21
4.5942034439
 31
0.0
  0
LINE
  5
7A
330
1F
100
AcDbEntity
  8
0
  6
Continuous
 62
     7
370
    30
100
AcDbLine
 10
1.543557738
 20
4.5942034439
 30
0.0
 11
1.5655577772
 21
4.6069051439
 31
0.0
  0
LINE
  5
7B
330
1F
100
AcDbEntity
  8
0
  6
Continuous
 62
     7
370
    30
100
AcDbLine
 10
1.5655577772
 20
4.6069051439
 30
0.0
 11
1.543557738
 21
4.6196068438
 31
0.0
  0
LINE
  5
7C
330
1F
100
AcDbEntity
  8
0
  6
Continuous
 62
     7
370
    30
100
AcDbLine
 10
1.4215577074
 20
4.6196068438
 30
0.0
 11
1.3995576682
 21
4.6069051439
 31
0.0
  0
LINE
  5
7D
330
1F
100
AcDbEntity
  8
0
  6
Continuous
 62
     7
370
    30
100
AcDbLine
 10
1.5655577772
 20
4.3291273694
 30
0.0
 11
1.543557738
 21
4.3418290694
 31
0.0
  0
LINE
  5
7E
330
1F
100
AcDbEntity
  8
0
  6
Continuous
 62
     7
370
    30
100
AcDbLine
 10
1.4215577074
 20
4.3418290694
 30
0.0
 11
1.3995576682
 21
4.3291273694
 31
0.0
  0
LINE
  5
7F
330
1F
100
AcDbEntity
  8
0
  6
Continuous
 62
     7
370
    30
100
AcDbLine
 10
1.3995576682
 20
4.3291273694
 30
0.0
 11
1.4215577074
 21
4.3164256695
 31
0.0
  0
LINE
  5
80
330
1F
100
AcDbEntity
  8
0
  6
Continuous
 62
     7
370
    30
100
AcDbLine
 10
1.543557738
 20
4.3164256695
 30
0.0
 11
1.5655577772
 21
4.3291273694
 31
0.0
  0
LINE
  5
81
330
1F
100
AcDbEntity
  8
0
  6
Continuous
 62
     7
370
    30
100
AcDbLine
 10
1.5655577772
 20
4.8291273634
 30
0.0
 11
1.543557738
 21
4.8418290633
 31
0.0
  0
LINE
  5
82
330
1F
100
AcDbEntity
  8
0
  6
Continuous
 62
     7
370
    30
100
AcDbLine
 10
1.4215577074
 20
4.8418290633
 30
0.0
 11
1.3995576682
 21
4.8291273634
 31
0.0
  0
LINE
  5
83
330
1F
100
AcDbEntity
  8
0
  6
Continuous
 62
     7
370
    30
100
AcDbLine
 10
1.3995576682
 20
4.3846829243
 30
0.0
 11
1.4215577074
 21
4.3719812244
 31
0.0
  0
LINE
  5
84
330
1F
100
AcDbEntity
  8
0
  6
Continuous
 62
     7
370
    30
100
AcDbLine
 10
1.543557738
 20
4.3719812244
 30
0.0
 11
1.5655577772
 21
4.3846829243
 31
0.0
  0
LINE
  5
85
330
1F
100
AcDbEntity
  8
0
  6
Continuous
 62
     7
370
    30
100
AcDbLine
 10
1.3995576682
 20
4.4402384792
 30
0.0
 11
1.4215577074
 21
4.4275367793
 31
0.0
  0
LINE
  5
86
330
1F
100
AcDbEntity
  8
0
  6
Continuous
 62
     7
370
    30
100
AcDbLine
 10
1.543557738
 20
4.4275367793
 30
0.0
 11
1.5655577772
 21
4.4402384792
 31
0.0
  0
LINE
  5
87
330
1F
100
AcDbEntity
  8
0
  6
Continuous
 62
     7
370
    30
100
AcDbLine
 10
1.3995576682
 20
4.2735717779
 30
0.0
 11
1.4215577074
 21
4.260870078
 31
0.0
  0
LINE
  5
88
330
1F
100
AcDbEntity
  8
0
  6
Continuous
 62
     7
370
    30
100
AcDbLine
 10
1.543557738
 20
4.260870078
 30
0.0
 11
1.5655577772
 21
4.2735717779
 31
0.0
  0
LINE
  5
89
330
1F
100
AcDbEntity
  8
0
  6
Continuous
 62
     7
370
    30
100
AcDbLine
 10
1.5655577772
 20
4.551349589
 30
0.0
 11
1.543557738
 21
4.5640512889
 31
0.0
  0
LINE
  5
8A
330
1F
100
AcDbEntity
  8
0
  6
Continuous
 62
     7
370
    30
100
AcDbLine
 10
1.4215577074
 20
4.5640512889
 30
0.0
 11
1.3995576682
 21
4.551349589
 31
0.0
  0
LINE
  5
8B
330
1F
100
AcDbEntity
  8
0
  6
Continuous
 62
     7
370
    30
100
AcDbLine
 10
1.5655577772
 20
4.4402384792
 30
0.0
 11
1.543557738
 21
4.4529401791
 31
0.0
  0
LINE
  5
8C
330
1F
100
AcDbEntity
  8
0
  6
Continuous
 62
     7
370
    30
100
AcDbLine
 10
1.4215577074
 20
4.4529401791
 30
0.0
 11
1.3995576682
 21
4.4402384792
 31
0.0
  0
LINE
  5
8D
330
1F
100
AcDbEntity
  8
0
  6
Continuous
 62
     7
370
    30
100
AcDbLine
 10
1.3995576682
 20
4.7735718085
 30
0.0
 11
1.4215577074
 21
4.7608700902
 31
0.0
  0
LINE
  5
8E
330
1F
100
AcDbEntity
  8
0
  6
Continuous
 62
     7
370
    30
100
AcDbLine
 10
1.543557738
 20
4.7608700902
 30
0.0
 11
1.5655577772
 21
4.7735718085
 31
0.0
  0
LINE
  5
8F
330
1F
100
AcDbEntity
  8
0
  6
Continuous
 62
     7
370
    30
100
AcDbLine
 10
1.5655577772
 20
4.2735717779
 30
0.0
 11
1.543557738
 21
4.2862734778
 31
0.0
  0
LINE
  5
90
330
1F
100
AcDbEntity
  8
0
  6
Continuous
 62
     7
370
    30
100
AcDbLine
 10
1.4215577074
 20
4.2862734778
 30
0.0
 11
1.3995576682
 21
4.2735717779
 31
0.0
  0
LINE
  5
91
330
1F
100
AcDbEntity
  8
0
  6
Continuous
 62
     7
370
    30
100
AcDbLine
 10
1.5655577772
 20
4.7180162536
 30
0.0
 11
1.543557738
 21
4.7307179536
 31
0.0
  0
LINE
  5
92
330
1F
100
AcDbEntity
  8
0
  6
Continuous
 62
     7
370
    30
100
AcDbLine
 10
1.4215577074
 20
4.7307179536
 30
0.0
 11
1.3995576682
 21
4.7180162536
 31
0.0
  0
LINE
  5
93
330
1F
100
AcDbEntity
  8
0
  6
Continuous
 62
     7
370
    30
100
AcDbLine
 10
1.5655577772
 20
4.7735718085
 30
0.0
 11
1.543557738
 21
4.7862735084
 31
0.0
  0
LINE
  5
94
330
1F
100
AcDbEntity
  8
0
  6
Continuous
 62
     7
370
    30
100
AcDbLine
 10
1.4215577074
 20
4.7862735084
 30
0.0
 11
1.3995576682
 21
4.7735718085
 31
0.0
  0
LINE
  5
95
330
1F
100
AcDbEntity
  8
0
  6
Continuous
 62
     7
370
    30
100
AcDbLine
 10
1.5655577772
 20
4.8846829183
 30
0.0
 11
1.543557738
 21
4.8973846228
 31
0.0
  0
LINE
  5
96
330
1F
100
AcDbEntity
  8
0
  6
Continuous
 62
     7
370
    30
100
AcDbLine
 10
1.4215577074
 20
4.8973846228
 30
0.0
 11
1.3995576682
 21
4.8846829183
 31
0.0
  0
LINE
  5
97
330
1F
100
AcDbEntity
  8
0
  6
Continuous
 62
     7
370
    30
100
AcDbLine
 10
1.3995576682
 20
4.8846829183
 30
0.0
 11
1.4215577074
 21
4.8719812092
 31
0.0
  0
LINE
  5
98
330
1F
100
AcDbEntity
  8
0
  6
Continuous
 62
     7
370
    30
100
AcDbLine
 10
1.543557738
 20
4.8719812092
 30
0.0
 11
1.5655577772
 21
4.8846829183
 31
0.0
  0
LINE
  5
99
330
1F
100
AcDbEntity
  8
0
  6
Continuous
 62
     7
370
    30
100
AcDbLine
 10
1.5655577772
 20
4.4957940341
 30
0.0
 11
1.543557738
 21
4.508495734
 31
0.0
  0
LINE
  5
9A
330
1F
100
AcDbEntity
  8
0
  6
Continuous
 62
     7
370
    30
100
AcDbLine
 10
1.4215577074
 20
4.508495734
 30
0.0
 11
1.3995576682
 21
4.4957940341
 31
0.0
  0
LINE
  5
9B
330
1F
100
AcDbEntity
  8
0
  6
Continuous
 62
     7
370
    30
100
AcDbLine
 10
1.3995576682
 20
4.1624606681
 30
0.0
 11
1.4215577074
 21
4.1497589682
 31
0.0
  0
LINE
  5
9C
330
1F
100
AcDbEntity
  8
0
  6
Continuous
 62
     7
370
    30
100
AcDbLine
 10
1.543557738
 20
4.1497589682
 30
0.0
 11
1.5655577772
 21
4.1624606681
 31
0.0
  0
LINE
  5
9D
330
1F
100
AcDbEntity
  8
0
  6
Continuous
 62
     7
370
    30
100
AcDbLine
 10
1.3995576682
 20
4.2180162597
 30
0.0
 11
1.4215577074
 21
4.2053145597
 31
0.0
  0
LINE
  5
9E
330
1F
100
AcDbEntity
  8
0
  6
Continuous
 62
     7
370
    30
100
AcDbLine
 10
1.543557738
 20
4.2053145597
 30
0.0
 11
1.5655577772
 21
4.2180162597
 31
0.0
  0
LINE
  5
9F
330
1F
100
AcDbEntity
  8
0
  6
Continuous
 62
     7
370
    30
100
AcDbLine
 10
1.3995576682
 20
3.9957940401
 30
0.0
 11
1.4215577074
 21
3.9830923402
 31
0.0
  0
LINE
  5
A0
330
1F
100
AcDbEntity
  8
0
  6
Continuous
 62
     7
370
    30
100
AcDbLine
 10
1.543557738
 20
3.9830923402
 30
0.0
 11
1.5655577772
 21
3.9957940401
 31
0.0
  0
LINE
  5
A1
330
1F
100
AcDbEntity
  8
0
  6
Continuous
 62
     7
370
    30
100
AcDbLine
 10
1.3995576682
 20
4.4957940341
 30
0.0
 11
1.4215577074
 21
4.4830923342
 31
0.0
  0
LINE
  5
A2
330
1F
100
AcDbEntity
  8
0
  6
Continuous
 62
     7
370
    30
100
AcDbLine
 10
1.543557738
 20
4.4830923342
 30
0.0
 11
1.5655577772
 21
4.4957940341
 31
0.0
  0
LINE
  5
A3
330
1F
100
AcDbEntity
  8
0
  6
Continuous
 62
     7
370
    30
100
AcDbLine
 10
1.5655577772
 20
4.6624606987
 30
0.0
 11
1.543557738
 21
4.6751623987
 31
0.0
  0
LINE
  5
A4
330
1F
100
AcDbEntity
  8
0
  6
Continuous
 62
     7
370
    30
100
AcDbLine
 10
1.4215577074
 20
4.6751623987
 30
0.0
 11
1.3995576682
 21
4.6624606987
 31
0.0
  0
LINE
  5
A5
330
1F
100
AcDbEntity
  8
0
  6
Continuous
 62
     7
370
    30
100
AcDbLine
 10
1.3995576682
 20
4.8291273634
 30
0.0
 11
1.4215577074
 21
4.8164256543
 31
0.0
  0
LINE
  5
A6
330
1F
100
AcDbEntity
  8
0
  6
Continuous
 62
     7
370
    30
100
AcDbLine
 10
1.543557738
 20
4.8164256543
 30
0.0
 11
1.5655577772
 21
4.8291273634
 31
0.0
  0
LINE
  5
A7
330
1F
100
AcDbEntity
  8
0
  6
Continuous
 62
     7
370
    30
100
AcDbLine
 10
1.5655577772
 20
3.8846829304
 30
0.0
 11
1.543557738
 21
3.8973846303
 31
0.0
  0
LINE
  5
A8
330
1F
100
AcDbEntity
  8
0
  6
Continuous
 62
     7
370
    30
100
AcDbLine
 10
1.4215577074
 20
3.8973846303
 30
0.0
 11
1.3995576682
 21
3.8846829304
 31
0.0
  0
LINE
  5
A9
330
1F
100
AcDbEntity
  8
0
  6
Continuous
 62
     7
370
    30
100
AcDbLine
 10
1.3995576682
 20
4.551349589
 30
0.0
 11
1.4215577074
 21
4.538647889
 31
0.0
  0
LINE
  5
AA
330
1F
100
AcDbEntity
  8
0
  6
Continuous
 62
     7
370
    30
100
AcDbLine
 10
1.543557738
 20
4.538647889
 30
0.0
 11
1.5655577772
 21
4.551349589
 31
0.0
  0
LINE
  5
AB
330
1F
100
AcDbEntity
  8
0
  6
Continuous
 62
     7
370
    30
100
AcDbLine
 10
1.5655577772
 20
4.940238472
 30
0.0
 11
1.543557738
 21
4.9529401777
 31
0.0
  0
LINE
  5
AC
330
1F
100
AcDbEntity
  8
0
  6
Continuous
 62
     7
370
    30
100
AcDbLine
 10
1.4215577074
 20
4.9529401777
 30
0.0
 11
1.3995576682
 21
4.940238472
 31
0.0
  0
LINE
  5
AD
330
1F
100
AcDbEntity
  8
0
  6
Continuous
 62
     7
370
    30
100
AcDbLine
 10
1.5655577772
 20
4.2180162597
 30
0.0
 11
1.543557738
 21
4.2307179596
 31
0.0
  0
LINE
  5
AE
330
1F
100
AcDbEntity
  8
0
  6
Continuous
 62
     7
370
    30
100
AcDbLine
 10
1.4215577074
 20
4.2307179596
 30
0.0
 11
1.3995576682
 21
4.2180162597
 31
0.0
  0
LINE
  5
AF
330
1F
100
AcDbEntity
  8
0
  6
Continuous
 62
     7
370
    30
100
AcDbLine
 10
1.5655577772
 20
4.0513495584
 30
0.0
 11
1.543557738
 21
4.0640512583
 31
0.0
  0
LINE
  5
B0
330
1F
100
AcDbEntity
  8
0
  6
Continuous
 62
     7
370
    30
100
AcDbLine
 10
1.4215577074
 20
4.0640512583
 30
0.0
 11
1.3995576682
 21
4.0513495584
 31
0.0
  0
LINE
  5
B1
330
1F
100
AcDbEntity
  8
0
  6
Continuous
 62
     7
370
    30
100
AcDbLine
 10
1.3995576682
 20
4.7180162536
 30
0.0
 11
1.4215577074
 21
4.7053145354
 31
0.0
  0
LINE
  5
B2
330
1F
100
AcDbEntity
  8
0
  6
Continuous
 62
     7
370
    30
100
AcDbLine
 10
1.543557738
 20
4.7053145354
 30
0.0
 11
1.5655577772
 21
4.7180162536
 31
0.0
  0
LINE
  5
B3
330
1F
100
AcDbEntity
  8
0
  6
Continuous
 62
     7
370
    30
100
AcDbLine
 10
1.3995576682
 20
3.9402384486
 30
0.0
 11
1.4215577074
 21
3.9275367486
 31
0.0
  0
LINE
  5
B4
330
1F
100
AcDbEntity
  8
0
  6
Continuous
 62
     7
370
    30
100
AcDbLine
 10
1.543557738
 20
3.9275367486
 30
0.0
 11
1.5655577772
 21
3.9402384486
 31
0.0
  0
LINE
  5
B5
330
1F
100
AcDbEntity
  8
0
  6
Continuous
 62
     7
370
    30
100
AcDbLine
 10
1.3995576682
 20
4.6624606987
 30
0.0
 11
1.4215577074
 21
4.6497589805
 31
0.0
  0
LINE
  5
B6
330
1F
100
AcDbEntity
  8
0
  6
Continuous
 62
     7
370
    30
100
AcDbLine
 10
1.543557738
 20
4.6497589805
 30
0.0
 11
1.5655577772
 21
4.6624606987
 31
0.0
  0
LINE
  5
B7
330
1F
100
AcDbEntity
  8
0
  6
Continuous
 62
     7
370
    30
100
AcDbLine
 10
1.3995576682
 20
4.940238472
 30
0.0
 11
1.4215577074
 21
4.9275367664
 31
0.0
  0
LINE
  5
B8
330
1F
100
AcDbEntity
  8
0
  6
Continuous
 62
     7
370
    30
100
AcDbLine
 10
1.543557738
 20
4.9275367664
 30
0.0
 11
1.5655577772
 21
4.940238472
 31
0.0
  0
LINE
  5
B9
330
1F
100
AcDbEntity
  8
0
  6
Continuous
 62
     7
370
    30
100
AcDbLine
 10
1.5655577772
 20
4.1624606681
 30
0.0
 11
1.543557738
 21
4.1751623681
 31
0.0
  0
LINE
  5
BA
330
1F
100
AcDbEntity
  8
0
  6
Continuous
 62
     7
370
    30
100
AcDbLine
 10
1.4215577074
 20
4.1751623681
 30
0.0
 11
1.3995576682
 21
4.1624606681
 31
0.0
  0
LINE
  5
BB
330
1F
100
AcDbEntity
  8
0
  6
Continuous
 62
     7
370
    30
100
AcDbLine
 10
1.5655577772
 20
4.1069051499
 30
0.0
 11
1.543557738
 21
4.1196068498
 31
0.0
  0
LINE
  5
BC
330
1F
100
AcDbEntity
  8
0
  6
Continuous
 62
     7
370
    30
100
AcDbLine
 10
1.4215577074
 20
4.1196068498
 30
0.0
 11
1.3995576682
 21
4.1069051499
 31
0.0
  0
LINE
  5
BD
330
1F
100
AcDbEntity
  8
0
  6
Continuous
 62
     7
370
    30
100
AcDbLine
 10
1.3995576682
 20
4.1069051499
 30
0.0
 11
1.4215577074
 21
4.09420345
 31
0.0
  0
LINE
  5
BE
330
1F
100
AcDbEntity
  8
0
  6
Continuous
 62
     7
370
    30
100
AcDbLine
 10
1.543557738
 20
4.09420345
 30
0.0
 11
1.5655577772
 21
4.1069051499
 31
0.0
  0
LINE
  5
BF
330
1F
100
AcDbEntity
  8
0
  6
Continuous
 62
     7
370
    30
100
AcDbLine
 10
1.5655577772
 20
3.9402384486
 30
0.0
 11
1.543557738
 21
3.9529401485
 31
0.0
  0
LINE
  5
C0
330
1F
100
AcDbEntity
  8
0
  6
Continuous
 62
     7
370
    30
100
AcDbLine
 10
1.4215577074
 20
3.9529401485
 30
0.0
 11
1.3995576682
 21
3.9402384486
 31
0.0
  0
LINE
  5
C1
330
1F
100
AcDbEntity
  8
0
  6
Continuous
 62
     7
370
    30
100
AcDbLine
 10
1.3995576682
 20
4.0513495584
 30
0.0
 11
1.4215577074
 21
4.0386478584
 31
0.0
  0
LINE
  5
C2
330
1F
100
AcDbEntity
  8
0
  6
Continuous
 62
     7
370
    30
100
AcDbLine
 10
1.543557738
 20
4.0386478584
 30
0.0
 11
1.5655577772
 21
4.0513495584
 31
0.0
  0
LINE
  5
C3
330
1F
100
AcDbEntity
  8
0
  6
Continuous
 62
     7
370
    30
100
AcDbLine
 10
1.3995576682
 20
3.8846829304
 30
0.0
 11
1.414205979
 21
3.8762257147
 31
0.0
  0
LINE
  5
C4
330
1F
100
AcDbEntity
  8
0
  6
Continuous
 62
     7
370
    30
100
AcDbLine
 10
1.5509094664
 20
3.8762257147
 30
0.0
 11
1.5655577772
 21
3.8846829304
 31
0.0
  0
LINE
  5
C5
330
1F
100
AcDbEntity
  8
0
  6
Continuous
 62
     7
370
    30
100
AcDbLine
 10
1.5655577772
 20
3.9957940401
 30
0.0
 11
1.543557738
 21
4.0084957401
 31
0.0
  0
LINE
  5
C6
330
1F
100
AcDbEntity
  8
0
  6
Continuous
 62
     7
370
    30
100
AcDbLine
 10
1.4215577074
 20
4.0084957401
 30
0.0
 11
1.3995576682
 21
3.9957940401
 31
0.0
  0
LINE
  5
C7
330
1F
100
AcDbEntity
  8
0
  6
Continuous
 62
     7
370
    30
100
AcDbLine
 10
1.543557738
 20
4.2862734778
 30
0.0
 11
1.543557738
 21
4.3164256695
 31
0.0
  0
LINE
  5
C8
330
1F
100
AcDbEntity
  8
0
  6
Continuous
 62
     7
370
    30
100
AcDbLine
 10
1.4215577074
 20
4.3164256695
 30
0.0
 11
1.4215577074
 21
4.2862734778
 31
0.0
  0
LINE
  5
C9
330
1F
100
AcDbEntity
  8
0
  6
Continuous
 62
     7
370
    30
100
AcDbLine
 10
1.543557738
 20
4.5640512889
 30
0.0
 11
1.543557738
 21
4.5942034439
 31
0.0
  0
LINE
  5
CA
330
1F
100
AcDbEntity
  8
0
  6
Continuous
 62
     7
370
    30
100
AcDbLine
 10
1.4215577074
 20
4.5942034439
 30
0.0
 11
1.4215577074
 21
4.5640512889
 31
0.0
  0
LINE
  5
CB
330
1F
100
AcDbEntity
  8
0
  6
Continuous
 62
     7
370
    30
100
AcDbLine
 10
1.543557738
 20
4.0084957401
 30
0.0
 11
1.543557738
 21
4.0386478584
 31
0.0
  0
LINE
  5
CC
330
1F
100
AcDbEntity
  8
0
  6
Continuous
 62
     7
370
    30
100
AcDbLine
 10
1.4215577074
 20
4.0386478584
 30
0.0
 11
1.4215577074
 21
4.0084957401
 31
0.0
  0
LINE
  5
CD
330
1F
100
AcDbEntity
  8
0
  6
Continuous
 62
     7
370
    30
100
AcDbLine
 10
1.543557738
 20
4.3973846243
 30
0.0
 11
1.543557738
 21
4.4275367793
 31
0.0
  0
LINE
  5
CE
330
1F
100
AcDbEntity
  8
0
  6
Continuous
 62
     7
370
    30
100
AcDbLine
 10
1.4215577074
 20
4.4275367793
 30
0.0
 11
1.4215577074
 21
4.3973846243
 31
0.0
  0
LINE
  5
CF
330
1F
100
AcDbEntity
  8
0
  6
Continuous
 62
     7
370
    30
100
AcDbLine
 10
1.543557738
 20
4.6196068438
 30
0.0
 11
1.543557738
 21
4.6497589805
 31
0.0
  0
LINE
  5
D0
330
1F
100
AcDbEntity
  8
0
  6
Continuous
 62
     7
370
    30
100
AcDbLine
 10
1.4215577074
 20
4.6497589805
 30
0.0
 11
1.4215577074
 21
4.6196068438
 31
0.0
  0
LINE
  5
D1
330
1F
100
AcDbEntity
  8
0
  6
Continuous
 62
     7
370
    30
100
AcDbLine
 10
1.543557738
 20
4.1196068498
 30
0.0
 11
1.543557738
 21
4.1497589682
 31
0.0
  0
LINE
  5
D2
330
1F
100
AcDbEntity
  8
0
  6
Continuous
 62
     7
370
    30
100
AcDbLine
 10
1.4215577074
 20
4.1497589682
 30
0.0
 11
1.4215577074
 21
4.1196068498
 31
0.0
  0
LINE
  5
D3
330
1F
100
AcDbEntity
  8
0
  6
Continuous
 62
     7
370
    30
100
AcDbLine
 10
1.543557738
 20
4.1751623681
 30
0.0
 11
1.543557738
 21
4.2053145597
 31
0.0
  0
LINE
  5
D4
330
1F
100
AcDbEntity
  8
0
  6
Continuous
 62
     7
370
    30
100
AcDbLine
 10
1.4215577074
 20
4.2053145597
 30
0.0
 11
1.4215577074
 21
4.1751623681
 31
0.0
  0
LINE
  5
D5
330
1F
100
AcDbEntity
  8
0
  6
Continuous
 62
     7
370
    30
100
AcDbLine
 10
1.543557738
 20
4.7307179536
 30
0.0
 11
1.543557738
 21
4.7608700902
 31
0.0
  0
LINE
  5
D6
330
1F
100
AcDbEntity
  8
0
  6
Continuous
 62
     7
370
    30
100
AcDbLine
 10
1.4215577074
 20
4.7608700902
 30
0.0
 11
1.4215577074
 21
4.7307179536
 31
0.0
  0
LINE
  5
D7
330
1F
100
AcDbEntity
  8
0
  6
Continuous
 62
     7
370
    30
100
AcDbLine
 10
1.543557738
 20
4.8973846228
 30
0.0
 11
1.543557738
 21
4.9275367664
 31
0.0
  0
LINE
  5
D8
330
1F
100
AcDbEntity
  8
0
  6
Continuous
 62
     7
370
    30
100
AcDbLine
 10
1.4215577074
 20
4.9275367664
 30
0.0
 11
1.4215577074
 21
4.8973846228
 31
0.0
  0
LINE
  5
D9
330
1F
100
AcDbEntity
  8
0
  6
Continuous
 62
     7
370
    30
100
AcDbLine
 10
1.543557738
 20
4.6751623987
 30
0.0
 11
1.543557738
 21
4.7053145354
 31
0.0
  0
LINE
  5
DA
330
1F
100
AcDbEntity
  8
0
  6
Continuous
 62
     7
370
    30
100
AcDbLine
 10
1.4215577074
 20
4.7053145354
 30
0.0
 11
1.4215577074
 21
4.6751623987
 31
0.0
  0
LINE
  5
DB
330
1F
100
AcDbEntity
  8
0
  6
Continuous
 62
     7
370
    30
100
AcDbLine
 10
1.543557738
 20
4.3418290694
 30
0.0
 11
1.543557738
 21
4.3719812244
 31
0.0
  0
LINE
  5
DC
330
1F
100
AcDbEntity
  8
0
  6
Continuous
 62
     7
370
    30
100
AcDbLine
 10
1.4215577074
 20
4.3719812244
 30
0.0
 11
1.4215577074
 21
4.3418290694
 31
0.0
  0
LINE
  5
DD
330
1F
100
AcDbEntity
  8
0
  6
Continuous
 62
     7
370
    30
100
AcDbLine
 10
1.543557738
 20
4.508495734
 30
0.0
 11
1.543557738
 21
4.538647889
 31
0.0
  0
LINE
  5
DE
330
1F
100
AcDbEntity
  8
0
  6
Continuous
 62
     7
370
    30
100
AcDbLine
 10
1.4215577074
 20
4.538647889
 30
0.0
 11
1.4215577074
 21
4.508495734
 31
0.0
  0
LINE
  5
DF
330
1F
100
AcDbEntity
  8
0
  6
Continuous
 62
     7
370
    30
100
AcDbLine
 10
1.543557738
 20
4.4529401791
 30
0.0
 11
1.543557738
 21
4.4830923342
 31
0.0
  0
LINE
  5
E0
330
1F
100
AcDbEntity
  8
0
  6
Continuous
 62
     7
370
    30
100
AcDbLine
 10
1.4215577074
 20
4.4830923342
 30
0.0
 11
1.4215577074
 21
4.4529401791
 31
0.0
  0
LINE
  5
E1
330
1F
100
AcDbEntity
  8
0
  6
Continuous
 62
     7
370
    30
100
AcDbLine
 10
1.543557738
 20
4.7862735084
 30
0.0
 11
1.543557738
 21
4.8164256543
 31
0.0
  0
LINE
  5
E2
330
1F
100
AcDbEntity
  8
0
  6
Continuous
 62
     7
370
    30
100
AcDbLine
 10
1.4215577074
 20
4.8164256543
 30
0.0
 11
1.4215577074
 21
4.7862735084
 31
0.0
  0
LINE
  5
E3
330
1F
100
AcDbEntity
  8
0
  6
Continuous
 62
     7
370
    30
100
AcDbLine
 10
1.543557738
 20
3.8973846303
 30
0.0
 11
1.543557738
 21
3.9275367486
 31
0.0
  0
LINE
  5
E4
330
1F
100
AcDbEntity
  8
0
  6
Continuous
 62
     7
370
    30
100
AcDbLine
 10
1.4215577074
 20
3.9275367486
 30
0.0
 11
1.4215577074
 21
3.8973846303
 31
0.0
  0
LINE
  5
E5
330
1F
100
AcDbEntity
  8
0
  6
Continuous
 62
     7
370
    30
100
AcDbLine
 10
1.543557738
 20
4.9529401777
 30
0.0
 11
1.543557738
 21
5.1166272105
 31
0.0
  0
LINE
  5
E6
330
1F
100
AcDbEntity
  8
0
  6
Continuous
 62
     7
370
    30
100
AcDbLine
 10
1.4215577074
 20
5.1166272105
 30
0.0
 11
1.4215577074
 21
4.9529401777
 31
0.0
  0
LINE
  5
E7
330
1F
100
AcDbEntity
  8
0
  6
Continuous
 62
     7
370
    30
100
AcDbLine
 10
1.543557738
 20
4.2307179596
 30
0.0
 11
1.543557738
 21
4.260870078
 31
0.0
  0
LINE
  5
E8
330
1F
100
AcDbEntity
  8
0
  6
Continuous
 62
     7
370
    30
100
AcDbLine
 10
1.4215577074
 20
4.260870078
 30
0.0
 11
1.4215577074
 21
4.2307179596
 31
0.0
  0
LINE
  5
E9
330
1F
100
AcDbEntity
  8
0
  6
Continuous
 62
     7
370
    30
100
AcDbLine
 10
1.543557738
 20
4.0640512583
 30
0.0
 11
1.543557738
 21
4.09420345
 31
0.0
  0
LINE
  5
EA
330
1F
100
AcDbEntity
  8
0
  6
Continuous
 62
     7
370
    30
100
AcDbLine
 10
1.4215577074
 20
4.09420345
 30
0.0
 11
1.4215577074
 21
4.0640512583
 31
0.0
  0
LINE
  5
EB
330
1F
100
AcDbEntity
  8
0
  6
Continuous
 62
     7
370
    30
100
AcDbLine
 10
1.543557738
 20
5.1166272105
 30
0.0
 11
1.4825577227
 21
5.2638942243
 31
0.0
  0
LINE
  5
EC
330
1F
100
AcDbEntity
  8
0
  6
Continuous
 62
     7
370
    30
100
AcDbLine
 10
1.4825577227
 20
5.2638942243
 30
0.0
 11
1.4215577074
 21
5.1166272105
 31
0.0
  0
LINE
  5
ED
330
1F
100
AcDbEntity
  8
0
  6
Continuous
 62
     7
370
    30
100
AcDbLine
 10
1.543557738
 20
4.8418290633
 30
0.0
 11
1.543557738
 21
4.8719812092
 31
0.0
  0
LINE
  5
EE
330
1F
100
AcDbEntity
  8
0
  6
Continuous
 62
     7
370
    30
100
AcDbLine
 10
1.4215577074
 20
4.8719812092
 30
0.0
 11
1.4215577074
 21
4.8418290633
 31
0.0
  0
LINE
  5
EF
330
1F
100
AcDbEntity
  8
0
  6
Continuous
 62
     7
370
    30
100
AcDbLine
 10
1.543557738
 20
3.9529401485
 30
0.0
 11
1.543557738
 21
3.9830923402
 31
0.0
  0
LINE
  5
F0
330
1F
100
AcDbEntity
  8
0
  6
Continuous
 62
     7
370
    30
100
AcDbLine
 10
1.4215577074
 20
3.9830923402
 30
0.0
 11
1.4215577074
 21
3.9529401485
 31
0.0
  0
LINE
  5
F1
330
1F
100
AcDbEntity
  8
0
  6
Continuous
 62
     7
370
    30
100
AcDbLine
 10
9.4303501758
 20
3.8722677405
 30
0.0
 11
9.4269094155
 21
3.8762257147
 31
0.0
  0
LINE
  5
F2
330
1F
100
AcDbEntity
  8
0
  6
Continuous
 62
     7
370
    30
100
AcDbLine
 10
9.2902059281
 20
3.8762257147
 30
0.0
 11
9.2867654611
 21
3.8722677405
 31
0.0
  0
LINE
  5
F3
330
1F
100
AcDbEntity
  8
0
  6
Continuous
 62
     7
370
    30
100
AcDbLine
 10
9.4415577263
 20
4.7180162536
 30
0.0
 11
9.4195576871
 21
4.7307179536
 31
0.0
  0
LINE
  5
F4
330
1F
100
AcDbEntity
  8
0
  6
Continuous
 62
     7
370
    30
100
AcDbLine
 10
9.2975576565
 20
4.7307179536
 30
0.0
 11
9.2755576173
 21
4.7180162536
 31
0.0
  0
LINE
  5
F5
330
1F
100
AcDbEntity
  8
0
  6
Continuous
 62
     7
370
    30
100
AcDbLine
 10
9.2755576173
 20
4.6624606987
 30
0.0
 11
9.2975576565
 21
4.6497589805
 31
0.0
  0
LINE
  5
F6
330
1F
100
AcDbEntity
  8
0
  6
Continuous
 62
     7
370
    30
100
AcDbLine
 10
9.4195576871
 20
4.6497589805
 30
0.0
 11
9.4415577263
 21
4.6624606987
 31
0.0
  0
LINE
  5
F7
330
1F
100
AcDbEntity
  8
0
  6
Continuous
 62
     7
370
    30
100
AcDbLine
 10
9.2755576173
 20
4.8846829183
 30
0.0
 11
9.2975576565
 21
4.8719812092
 31
0.0
  0
LINE
  5
F8
330
1F
100
AcDbEntity
  8
0
  6
Continuous
 62
     7
370
    30
100
AcDbLine
 10
9.4195576871
 20
4.8719812092
 30
0.0
 11
9.4415577263
 21
4.8846829183
 31
0.0
  0
LINE
  5
F9
330
1F
100
AcDbEntity
  8
0
  6
Continuous
 62
     7
370
    30
100
AcDbLine
 10
9.2755576173
 20
4.7735718085
 30
0.0
 11
9.2975576565
 21
4.7608700902
 31
0.0
  0
LINE
  5
FA
330
1F
100
AcDbEntity
  8
0
  6
Continuous
 62
     7
370
    30
100
AcDbLine
 10
9.4195576871
 20
4.7608700902
 30
0.0
 11
9.4415577263
 21
4.7735718085
 31
0.0
  0
LINE
  5
FB
330
1F
100
AcDbEntity
  8
0
  6
Continuous
 62
     7
370
    30
100
AcDbLine
 10
9.4415577263
 20
4.6069051439
 30
0.0
 11
9.4195576871
 21
4.6196068438
 31
0.0
  0
LINE
  5
FC
330
1F
100
AcDbEntity
  8
0
  6
Continuous
 62
     7
370
    30
100
AcDbLine
 10
9.2975576565
 20
4.6196068438
 30
0.0
 11
9.2755576173
 21
4.6069051439
 31
0.0
  0
LINE
  5
FD
330
1F
100
AcDbEntity
  8
0
  6
Continuous
 62
     7
370
    30
100
AcDbLine
 10
9.2755576173
 20
4.8291273634
 30
0.0
 11
9.2975576565
 21
4.8164256543
 31
0.0
  0
LINE
  5
FE
330
1F
100
AcDbEntity
  8
0
  6
Continuous
 62
     7
370
    30
100
AcDbLine
 10
9.4195576871
 20
4.8164256543
 30
0.0
 11
9.4415577263
 21
4.8291273634
 31
0.0
  0
LINE
  5
FF
330
1F
100
AcDbEntity
  8
0
  6
Continuous
 62
     7
370
    30
100
AcDbLine
 10
9.4415577263
 20
4.6624606987
 30
0.0
 11
9.4195576871
 21
4.6751623987
 31
0.0
  0
LINE
  5
100
330
1F
100
AcDbEntity
  8
0
  6
Continuous
 62
     7
370
    30
100
AcDbLine
 10
9.2975576565
 20
4.6751623987
 30
0.0
 11
9.2755576173
 21
4.6624606987
 31
0.0
  0
LINE
  5
101
330
1F
100
AcDbEntity
  8
0
  6
Continuous
 62
     7
370
    30
100
AcDbLine
 10
9.4415577263
 20
3.9402384486
 30
0.0
 11
9.4195576871
 21
3.9529401485
 31
0.0
  0
LINE
  5
102
330
1F
100
AcDbEntity
  8
0
  6
Continuous
 62
     7
370
    30
100
AcDbLine
 10
9.2975576565
 20
3.9529401485
 30
0.0
 11
9.2755576173
 21
3.9402384486
 31
0.0
  0
LINE
  5
103
330
1F
100
AcDbEntity
  8
0
  6
Continuous
 62
     7
370
    30
100
AcDbLine
 10
9.2755576173
 20
4.7180162536
 30
0.0
 11
9.2975576565
 21
4.7053145354
 31
0.0
  0
LINE
  5
104
330
1F
100
AcDbEntity
  8
0
  6
Continuous
 62
     7
370
    30
100
AcDbLine
 10
9.4195576871
 20
4.7053145354
 30
0.0
 11
9.4415577263
 21
4.7180162536
 31
0.0
  0
LINE
  5
105
330
1F
100
AcDbEntity
  8
0
  6
Continuous
 62
     7
370
    30
100
AcDbLine
 10
9.4415577263
 20
4.7735718085
 30
0.0
 11
9.4195576871
 21
4.7862735084
 31
0.0
  0
LINE
  5
106
330
1F
100
AcDbEntity
  8
0
  6
Continuous
 62
     7
370
    30
100
AcDbLine
 10
9.2975576565
 20
4.7862735084
 30
0.0
 11
9.2755576173
 21
4.7735718085
 31
0.0
  0
LINE
  5
107
330
1F
100
AcDbEntity
  8
0
  6
Continuous
 62
     7
370
    30
100
AcDbLine
 10
9.2755576173
 20
4.940238472
 30
0.0
 11
9.2975576565
 21
4.9275367664
 31
0.0
  0
LINE
  5
108
330
1F
100
AcDbEntity
  8
0
  6
Continuous
 62
     7
370
    30
100
AcDbLine
 10
9.4195576871
 20
4.9275367664
 30
0.0
 11
9.4415577263
 21
4.940238472
 31
0.0
  0
LINE
  5
109
330
1F
100
AcDbEntity
  8
0
  6
Continuous
 62
     7
370
    30
100
AcDbLine
 10
9.4415577263
 20
3.9957940401
 30
0.0
 11
9.4195576871
 21
4.0084957401
 31
0.0
  0
LINE
  5
10A
330
1F
100
AcDbEntity
  8
0
  6
Continuous
 62
     7
370
    30
100
AcDbLine
 10
9.2975576565
 20
4.0084957401
 30
0.0
 11
9.2755576173
 21
3.9957940401
 31
0.0
  0
LINE
  5
10B
330
1F
100
AcDbEntity
  8
0
  6
Continuous
 62
     7
370
    30
100
AcDbLine
 10
9.4415577263
 20
4.0513495584
 30
0.0
 11
9.4195576871
 21
4.0640512583
 31
0.0
  0
LINE
  5
10C
330
1F
100
AcDbEntity
  8
0
  6
Continuous
 62
     7
370
    30
100
AcDbLine
 10
9.2975576565
 20
4.0640512583
 30
0.0
 11
9.2755576173
 21
4.0513495584
 31
0.0
  0
LINE
  5
10D
330
1F
100
AcDbEntity
  8
0
  6
Continuous
 62
     7
370
    30
100
AcDbLine
 10
9.2755576173
 20
4.1624606681
 30
0.0
 11
9.2975576565
 21
4.1497589682
 31
0.0
  0
LINE
  5
10E
330
1F
100
AcDbEntity
  8
0
  6
Continuous
 62
     7
370
    30
100
AcDbLine
 10
9.4195576871
 20
4.1497589682
 30
0.0
 11
9.4415577263
 21
4.1624606681
 31
0.0
  0
LINE
  5
10F
330
1F
100
AcDbEntity
  8
0
  6
Continuous
 62
     7
370
    30
100
AcDbLine
 10
9.4415577263
 20
4.1624606681
 30
0.0
 11
9.4195576871
 21
4.1751623681
 31
0.0
  0
LINE
  5
110
330
1F
100
AcDbEntity
  8
0
  6
Continuous
 62
     7
370
    30
100
AcDbLine
 10
9.2975576565
 20
4.1751623681
 30
0.0
 11
9.2755576173
 21
4.1624606681
 31
0.0
  0
LINE
  5
111
330
1F
100
AcDbEntity
  8
0
  6
Continuous
 62
     7
370
    30
100
AcDbLine
 10
9.4415577263
 20
4.2180162597
 30
0.0
 11
9.4195576871
 21
4.2307179596
 31
0.0
  0
LINE
  5
112
330
1F
100
AcDbEntity
  8
0
  6
Continuous
 62
     7
370
    30
100
AcDbLine
 10
9.2975576565
 20
4.2307179596
 30
0.0
 11
9.2755576173
 21
4.2180162597
 31
0.0
  0
LINE
  5
113
330
1F
100
AcDbEntity
  8
0
  6
Continuous
 62
     7
370
    30
100
AcDbLine
 10
9.4415577263
 20
4.2735717779
 30
0.0
 11
9.4195576871
 21
4.2862734778
 31
0.0
  0
LINE
  5
114
330
1F
100
AcDbEntity
  8
0
  6
Continuous
 62
     7
370
    30
100
AcDbLine
 10
9.2975576565
 20
4.2862734778
 30
0.0
 11
9.2755576173
 21
4.2735717779
 31
0.0
  0
LINE
  5
115
330
1F
100
AcDbEntity
  8
0
  6
Continuous
 62
     7
370
    30
100
AcDbLine
 10
9.4415577263
 20
4.8846829183
 30
0.0
 11
9.4195576871
 21
4.8973846228
 31
0.0
  0
LINE
  5
116
330
1F
100
AcDbEntity
  8
0
  6
Continuous
 62
     7
370
    30
100
AcDbLine
 10
9.2975576565
 20
4.8973846228
 30
0.0
 11
9.2755576173
 21
4.8846829183
 31
0.0
  0
LINE
  5
117
330
1F
100
AcDbEntity
  8
0
  6
Continuous
 62
     7
370
    30
100
AcDbLine
 10
9.4415577263
 20
4.8291273634
 30
0.0
 11
9.4195576871
 21
4.8418290633
 31
0.0
  0
LINE
  5
118
330
1F
100
AcDbEntity
  8
0
  6
Continuous
 62
     7
370
    30
100
AcDbLine
 10
9.2975576565
 20
4.8418290633
 30
0.0
 11
9.2755576173
 21
4.8291273634
 31
0.0
  0
LINE
  5
119
330
1F
100
AcDbEntity
  8
0
  6
Continuous
 62
     7
370
    30
100
AcDbLine
 10
9.2755576173
 20
3.9957940401
 30
0.0
 11
9.2975576565
 21
3.9830923402
 31
0.0
  0
LINE
  5
11A
330
1F
100
AcDbEntity
  8
0
  6
Continuous
 62
     7
370
    30
100
AcDbLine
 10
9.4195576871
 20
3.9830923402
 30
0.0
 11
9.4415577263
 21
3.9957940401
 31
0.0
  0
LINE
  5
11B
330
1F
100
AcDbEntity
  8
0
  6
Continuous
 62
     7
370
    30
100
AcDbLine
 10
9.2755576173
 20
4.2180162597
 30
0.0
 11
9.2975576565
 21
4.2053145597
 31
0.0
  0
LINE
  5
11C
330
1F
100
AcDbEntity
  8
0
  6
Continuous
 62
     7
370
    30
100
AcDbLine
 10
9.4195576871
 20
4.2053145597
 30
0.0
 11
9.4415577263
 21
4.2180162597
 31
0.0
  0
LINE
  5
11D
330
1F
100
AcDbEntity
  8
0
  6
Continuous
 62
     7
370
    30
100
AcDbLine
 10
9.2755576173
 20
4.6069051439
 30
0.0
 11
9.2975576565
 21
4.5942034439
 31
0.0
  0
LINE
  5
11E
330
1F
100
AcDbEntity
  8
0
  6
Continuous
 62
     7
370
    30
100
AcDbLine
 10
9.4195576871
 20
4.5942034439
 30
0.0
 11
9.4415577263
 21
4.6069051439
 31
0.0
  0
LINE
  5
11F
330
1F
100
AcDbEntity
  8
0
  6
Continuous
 62
     7
370
    30
100
AcDbLine
 10
9.4415577263
 20
4.1069051499
 30
0.0
 11
9.4195576871
 21
4.1196068498
 31
0.0
  0
LINE
  5
120
330
1F
100
AcDbEntity
  8
0
  6
Continuous
 62
     7
370
    30
100
AcDbLine
 10
9.2975576565
 20
4.1196068498
 30
0.0
 11
9.2755576173
 21
4.1069051499
 31
0.0
  0
LINE
  5
121
330
1F
100
AcDbEntity
  8
0
  6
Continuous
 62
     7
370
    30
100
AcDbLine
 10
9.2755576173
 20
4.1069051499
 30
0.0
 11
9.2975576565
 21
4.09420345
 31
0.0
  0
LINE
  5
122
330
1F
100
AcDbEntity
  8
0
  6
Continuous
 62
     7
370
    30
100
AcDbLine
 10
9.4195576871
 20
4.09420345
 30
0.0
 11
9.4415577263
 21
4.1069051499
 31
0.0
  0
LINE
  5
123
330
1F
100
AcDbEntity
  8
0
  6
Continuous
 62
     7
370
    30
100
AcDbLine
 10
9.2755576173
 20
4.0513495584
 30
0.0
 11
9.2975576565
 21
4.0386478584
 31
0.0
  0
LINE
  5
124
330
1F
100
AcDbEntity
  8
0
  6
Continuous
 62
     7
370
    30
100
AcDbLine
 10
9.4195576871
 20
4.0386478584
 30
0.0
 11
9.4415577263
 21
4.0513495584
 31
0.0
  0
LINE
  5
125
330
1F
100
AcDbEntity
  8
0
  6
Continuous
 62
     7
370
    30
100
AcDbLine
 10
9.2755576173
 20
3.9402384486
 30
0.0
 11
9.2975576565
 21
3.9275367486
 31
0.0
  0
LINE
  5
126
330
1F
100
AcDbEntity
  8
0
  6
Continuous
 62
     7
370
    30
100
AcDbLine
 10
9.4195576871
 20
3.9275367486
 30
0.0
 11
9.4415577263
 21
3.9402384486
 31
0.0
  0
LINE
  5
127
330
1F
100
AcDbEntity
  8
0
  6
Continuous
 62
     7
370
    30
100
AcDbLine
 10
9.2755576173
 20
4.3846829243
 30
0.0
 11
9.2975576565
 21
4.3719812244
 31
0.0
  0
LINE
  5
128
330
1F
100
AcDbEntity
  8
0
  6
Continuous
 62
     7
370
    30
100
AcDbLine
 10
9.4195576871
 20
4.3719812244
 30
0.0
 11
9.4415577263
 21
4.3846829243
 31
0.0
  0
LINE
  5
129
330
1F
100
AcDbEntity
  8
0
  6
Continuous
 62
     7
370
    30
100
AcDbLine
 10
9.4415577263
 20
4.4402384792
 30
0.0
 11
9.4195576871
 21
4.4529401791
 31
0.0
  0
LINE
  5
12A
330
1F
100
AcDbEntity
  8
0
  6
Continuous
 62
     7
370
    30
100
AcDbLine
 10
9.2975576565
 20
4.4529401791
 30
0.0
 11
9.2755576173
 21
4.4402384792
 31
0.0
  0
LINE
  5
12B
330
1F
100
AcDbEntity
  8
0
  6
Continuous
 62
     7
370
    30
100
AcDbLine
 10
9.2755576173
 20
4.551349589
 30
0.0
 11
9.2975576565
 21
4.538647889
 31
0.0
  0
LINE
  5
12C
330
1F
100
AcDbEntity
  8
0
  6
Continuous
 62
     7
370
    30
100
AcDbLine
 10
9.4195576871
 20
4.538647889
 30
0.0
 11
9.4415577263
 21
4.551349589
 31
0.0
  0
LINE
  5
12D
330
1F
100
AcDbEntity
  8
0
  6
Continuous
 62
     7
370
    30
100
AcDbLine
 10
9.4415577263
 20
4.551349589
 30
0.0
 11
9.4195576871
 21
4.5640512889
 31
0.0
  0
LINE
  5
12E
330
1F
100
AcDbEntity
  8
0
  6
Continuous
 62
     7
370
    30
100
AcDbLine
 10
9.2975576565
 20
4.5640512889
 30
0.0
 11
9.2755576173
 21
4.551349589
 31
0.0
  0
LINE
  5
12F
330
1F
100
AcDbEntity
  8
0
  6
Continuous
 62
     7
370
    30
100
AcDbLine
 10
9.2755576173
 20
3.8846829304
 30
0.0
 11
9.2902059281
 21
3.8762257147
 31
0.0
  0
LINE
  5
130
330
1F
100
AcDbEntity
  8
0
  6
Continuous
 62
     7
370
    30
100
AcDbLine
 10
9.4269094155
 20
3.8762257147
 30
0.0
 11
9.4415577263
 21
3.8846829304
 31
0.0
  0
LINE
  5
131
330
1F
100
AcDbEntity
  8
0
  6
Continuous
 62
     7
370
    30
100
AcDbLine
 10
9.4415577263
 20
4.3291273694
 30
0.0
 11
9.4195576871
 21
4.3418290694
 31
0.0
  0
LINE
  5
132
330
1F
100
AcDbEntity
  8
0
  6
Continuous
 62
     7
370
    30
100
AcDbLine
 10
9.2975576565
 20
4.3418290694
 30
0.0
 11
9.2755576173
 21
4.3291273694
 31
0.0
  0
LINE
  5
133
330
1F
100
AcDbEntity
  8
0
  6
Continuous
 62
     7
370
    30
100
AcDbLine
 10
9.2755576173
 20
4.4402384792
 30
0.0
 11
9.2975576565
 21
4.4275367793
 31
0.0
  0
LINE
  5
134
330
1F
100
AcDbEntity
  8
0
  6
Continuous
 62
     7
370
    30
100
AcDbLine
 10
9.4195576871
 20
4.4275367793
 30
0.0
 11
9.4415577263
 21
4.4402384792
 31
0.0
  0
LINE
  5
135
330
1F
100
AcDbEntity
  8
0
  6
Continuous
 62
     7
370
    30
100
AcDbLine
 10
9.4415577263
 20
4.940238472
 30
0.0
 11
9.4195576871
 21
4.9529401777
 31
0.0
  0
LINE
  5
136
330
1F
100
AcDbEntity
  8
0
  6
Continuous
 62
     7
370
    30
100
AcDbLine
 10
9.2975576565
 20
4.9529401777
 30
0.0
 11
9.2755576173
 21
4.940238472
 31
0.0
  0
LINE
  5
137
330
1F
100
AcDbEntity
  8
0
  6
Continuous
 62
     7
370
    30
100
AcDbLine
 10
9.4415577263
 20
3.8846829304
 30
0.0
 11
9.4195576871
 21
3.8973846303
 31
0.0
  0
LINE
  5
138
330
1F
100
AcDbEntity
  8
0
  6
Continuous
 62
     7
370
    30
100
AcDbLine
 10
9.2975576565
 20
3.8973846303
 30
0.0
 11
9.2755576173
 21
3.8846829304
 31
0.0
  0
LINE
  5
139
330
1F
100
AcDbEntity
  8
0
  6
Continuous
 62
     7
370
    30
100
AcDbLine
 10
9.4415577263
 20
4.3846829243
 30
0.0
 11
9.4195576871
 21
4.3973846243
 31
0.0
  0
LINE
  5
13A
330
1F
100
AcDbEntity
  8
0
  6
Continuous
 62
     7
370
    30
100
AcDbLine
 10
9.2975576565
 20
4.3973846243
 30
0.0
 11
9.2755576173
 21
4.3846829243
 31
0.0
  0
LINE
  5
13B
330
1F
100
AcDbEntity
  8
0
  6
Continuous
 62
     7
370
    30
100
AcDbLine
 10
9.2755576173
 20
4.4957940341
 30
0.0
 11
9.2975576565
 21
4.4830923342
 31
0.0
  0
LINE
  5
13C
330
1F
100
AcDbEntity
  8
0
  6
Continuous
 62
     7
370
    30
100
AcDbLine
 10
9.4195576871
 20
4.4830923342
 30
0.0
 11
9.4415577263
 21
4.4957940341
 31
0.0
  0
LINE
  5
13D
330
1F
100
AcDbEntity
  8
0
  6
Continuous
 62
     7
370
    30
100
AcDbLine
 10
9.2755576173
 20
4.3291273694
 30
0.0
 11
9.2975576565
 21
4.3164256695
 31
0.0
  0
LINE
  5
13E
330
1F
100
AcDbEntity
  8
0
  6
Continuous
 62
     7
370
    30
100
AcDbLine
 10
9.4195576871
 20
4.3164256695
 30
0.0
 11
9.4415577263
 21
4.3291273694
 31
0.0
  0
LINE
  5
13F
330
1F
100
AcDbEntity
  8
0
  6
Continuous
 62
     7
370
    30
100
AcDbLine
 10
9.4415577263
 20
4.4957940341
 30
0.0
 11
9.4195576871
 21
4.508495734
 31
0.0
  0
LINE
  5
140
330
1F
100
AcDbEntity
  8
0
  6
Continuous
 62
     7
370
    30
100
AcDbLine
 10
9.2975576565
 20
4.508495734
 30
0.0
 11
9.2755576173
 21
4.4957940341
 31
0.0
  0
LINE
  5
141
330
1F
100
AcDbEntity
  8
0
  6
Continuous
 62
     7
370
    30
100
AcDbLine
 10
9.2755576173
 20
4.2735717779
 30
0.0
 11
9.2975576565
 21
4.260870078
 31
0.0
  0
LINE
  5
142
330
1F
100
AcDbEntity
  8
0
  6
Continuous
 62
     7
370
    30
100
AcDbLine
 10
9.4195576871
 20
4.260870078
 30
0.0
 11
9.4415577263
 21
4.2735717779
 31
0.0
  0
LINE
  5
143
330
1F
100
AcDbEntity
  8
0
  6
Continuous
 62
     7
370
    30
100
AcDbLine
 10
9.4195576871
 20
4.3973846243
 30
0.0
 11
9.4195576871
 21
4.4275367793
 31
0.0
  0
LINE
  5
144
330
1F
100
AcDbEntity
  8
0
  6
Continuous
 62
     7
370
    30
100
AcDbLine
 10
9.2975576565
 20
4.4275367793
 30
0.0
 11
9.2975576565
 21
4.3973846243
 31
0.0
  0
LINE
  5
145
330
1F
100
AcDbEntity
  8
0
  6
Continuous
 62
     7
370
    30
100
AcDbLine
 10
9.4195576871
 20
4.2862734778
 30
0.0
 11
9.4195576871
 21
4.3164256695
 31
0.0
  0
LINE
  5
146
330
1F
100
AcDbEntity
  8
0
  6
Continuous
 62
     7
370
    30
100
AcDbLine
 10
9.2975576565
 20
4.3164256695
 30
0.0
 11
9.2975576565
 21
4.2862734778
 31
0.0
  0
LINE
  5
147
330
1F
100
AcDbEntity
  8
0
  6
Continuous
 62
     7
370
    30
100
AcDbLine
 10
9.4195576871
 20
4.2307179596
 30
0.0
 11
9.4195576871
 21
4.260870078
 31
0.0
  0
LINE
  5
148
330
1F
100
AcDbEntity
  8
0
  6
Continuous
 62
     7
370
    30
100
AcDbLine
 10
9.2975576565
 20
4.260870078
 30
0.0
 11
9.2975576565
 21
4.2307179596
 31
0.0
  0
LINE
  5
149
330
1F
100
AcDbEntity
  8
0
  6
Continuous
 62
     7
370
    30
100
AcDbLine
 10
9.4195576871
 20
4.5640512889
 30
0.0
 11
9.4195576871
 21
4.5942034439
 31
0.0
  0
LINE
  5
14A
330
1F
100
AcDbEntity
  8
0
  6
Continuous
 62
     7
370
    30
100
AcDbLine
 10
9.2975576565
 20
4.5942034439
 30
0.0
 11
9.2975576565
 21
4.5640512889
 31
0.0
  0
LINE
  5
14B
330
1F
100
AcDbEntity
  8
0
  6
Continuous
 62
     7
370
    30
100
AcDbLine
 10
9.4195576871
 20
4.7862735084
 30
0.0
 11
9.4195576871
 21
4.8164256543
 31
0.0
  0
LINE
  5
14C
330
1F
100
AcDbEntity
  8
0
  6
Continuous
 62
     7
370
    30
100
AcDbLine
 10
9.2975576565
 20
4.8164256543
 30
0.0
 11
9.2975576565
 21
4.7862735084
 31
0.0
  0
LINE
  5
14D
330
1F
100
AcDbEntity
  8
0
  6
Continuous
 62
     7
370
    30
100
AcDbLine
 10
9.4195576871
 20
4.3418290694
 30
0.0
 11
9.4195576871
 21
4.3719812244
 31
0.0
  0
LINE
  5
14E
330
1F
100
AcDbEntity
  8
0
  6
Continuous
 62
     7
370
    30
100
AcDbLine
 10
9.2975576565
 20
4.3719812244
 30
0.0
 11
9.2975576565
 21
4.3418290694
 31
0.0
  0
LINE
  5
14F
330
1F
100
AcDbEntity
  8
0
  6
Continuous
 62
     7
370
    30
100
AcDbLine
 10
9.4195576871
 20
4.1196068498
 30
0.0
 11
9.4195576871
 21
4.1497589682
 31
0.0
  0
LINE
  5
150
330
1F
100
AcDbEntity
  8
0
  6
Continuous
 62
     7
370
    30
100
AcDbLine
 10
9.2975576565
 20
4.1497589682
 30
0.0
 11
9.2975576565
 21
4.1196068498
 31
0.0
  0
LINE
  5
151
330
1F
100
AcDbEntity
  8
0
  6
Continuous
 62
     7
370
    30
100
AcDbLine
 10
9.4195576871
 20
4.6196068438
 30
0.0
 11
9.4195576871
 21
4.6497589805
 31
0.0
  0
LINE
  5
152
330
1F
100
AcDbEntity
  8
0
  6
Continuous
 62
     7
370
    30
100
AcDbLine
 10
9.2975576565
 20
4.6497589805
 30
0.0
 11
9.2975576565
 21
4.6196068438
 31
0.0
  0
LINE
  5
153
330
1F
100
AcDbEntity
  8
0
  6
Continuous
 62
     7
370
    30
100
AcDbLine
 10
9.4195576871
 20
4.0084957401
 30
0.0
 11
9.4195576871
 21
4.0386478584
 31
0.0
  0
LINE
  5
154
330
1F
100
AcDbEntity
  8
0
  6
Continuous
 62
     7
370
    30
100
AcDbLine
 10
9.2975576565
 20
4.0386478584
 30
0.0
 11
9.2975576565
 21
4.0084957401
 31
0.0
  0
LINE
  5
155
330
1F
100
AcDbEntity
  8
0
  6
Continuous
 62
     7
370
    30
100
AcDbLine
 10
9.4195576871
 20
4.508495734
 30
0.0
 11
9.4195576871
 21
4.538647889
 31
0.0
  0
LINE
  5
156
330
1F
100
AcDbEntity
  8
0
  6
Continuous
 62
     7
370
    30
100
AcDbLine
 10
9.2975576565
 20
4.538647889
 30
0.0
 11
9.2975576565
 21
4.508495734
 31
0.0
  0
LINE
  5
157
330
1F
100
AcDbEntity
  8
0
  6
Continuous
 62
     7
370
    30
100
AcDbLine
 10
9.4195576871
 20
3.9529401485
 30
0.0
 11
9.4195576871
 21
3.9830923402
 31
0.0
  0
LINE
  5
158
330
1F
100
AcDbEntity
  8
0
  6
Continuous
 62
     7
370
    30
100
AcDbLine
 10
9.2975576565
 20
3.9830923402
 30
0.0
 11
9.2975576565
 21
3.9529401485
 31
0.0
  0
LINE
  5
159
330
1F
100
AcDbEntity
  8
0
  6
Continuous
 62
     7
370
    30
100
AcDbLine
 10
9.4195576871
 20
4.9529401777
 30
0.0
 11
9.4195576871
 21
5.1166272105
 31
0.0
  0
LINE
  5
15A
330
1F
100
AcDbEntity
  8
0
  6
Continuous
 62
     7
370
    30
100
AcDbLine
 10
9.2975576565
 20
5.1166272105
 30
0.0
 11
9.2975576565
 21
4.9529401777
 31
0.0
  0
LINE
  5
15B
330
1F
100
AcDbEntity
  8
0
  6
Continuous
 62
     7
370
    30
100
AcDbLine
 10
9.4195576871
 20
4.8418290633
 30
0.0
 11
9.4195576871
 21
4.8719812092
 31
0.0
  0
LINE
  5
15C
330
1F
100
AcDbEntity
  8
0
  6
Continuous
 62
     7
370
    30
100
AcDbLine
 10
9.2975576565
 20
4.8719812092
 30
0.0
 11
9.2975576565
 21
4.8418290633
 31
0.0
  0
LINE
  5
15D
330
1F
100
AcDbEntity
  8
0
  6
Continuous
 62
     7
370
    30
100
AcDbLine
 10
9.4195576871
 20
3.8973846303
 30
0.0
 11
9.4195576871
 21
3.9275367486
 31
0.0
  0
LINE
  5
15E
330
1F
100
AcDbEntity
  8
0
  6
Continuous
 62
     7
370
    30
100
AcDbLine
 10
9.2975576565
 20
3.9275367486
 30
0.0
 11
9.2975576565
 21
3.8973846303
 31
0.0
  0
LINE
  5
15F
330
1F
100
AcDbEntity
  8
0
  6
Continuous
 62
     7
370
    30
100
AcDbLine
 10
9.4195576871
 20
5.1166272105
 30
0.0
 11
9.3585576718
 21
5.2638942243
 31
0.0
  0
LINE
  5
160
330
1F
100
AcDbEntity
  8
0
  6
Continuous
 62
     7
370
    30
100
AcDbLine
 10
9.3585576718
 20
5.2638942243
 30
0.0
 11
9.2975576565
 21
5.1166272105
 31
0.0
  0
LINE
  5
161
330
1F
100
AcDbEntity
  8
0
  6
Continuous
 62
     7
370
    30
100
AcDbLine
 10
9.4195576871
 20
4.4529401791
 30
0.0
 11
9.4195576871
 21
4.4830923342
 31
0.0
  0
LINE
  5
162
330
1F
100
AcDbEntity
  8
0
  6
Continuous
 62
     7
370
    30
100
AcDbLine
 10
9.2975576565
 20
4.4830923342
 30
0.0
 11
9.2975576565
 21
4.4529401791
 31
0.0
  0
LINE
  5
163
330
1F
100
AcDbEntity
  8
0
  6
Continuous
 62
     7
370
    30
100
AcDbLine
 10
9.4195576871
 20
4.1751623681
 30
0.0
 11
9.4195576871
 21
4.2053145597
 31
0.0
  0
LINE
  5
164
330
1F
100
AcDbEntity
  8
0
  6
Continuous
 62
     7
370
    30
100
AcDbLine
 10
9.2975576565
 20
4.2053145597
 30
0.0
 11
9.2975576565
 21
4.1751623681
 31
0.0
  0
LINE
  5
165
330
1F
100
AcDbEntity
  8
0
  6
Continuous
 62
     7
370
    30
100
AcDbLine
 10
9.4195576871
 20
4.7307179536
 30
0.0
 11
9.4195576871
 21
4.7608700902
 31
0.0
  0
LINE
  5
166
330
1F
100
AcDbEntity
  8
0
  6
Continuous
 62
     7
370
    30
100
AcDbLine
 10
9.2975576565
 20
4.7608700902
 30
0.0
 11
9.2975576565
 21
4.7307179536
 31
0.0
  0
LINE
  5
167
330
1F
100
AcDbEntity
  8
0
  6
Continuous
 62
     7
370
    30
100
AcDbLine
 10
9.4195576871
 20
4.0640512583
 30
0.0
 11
9.4195576871
 21
4.09420345
 31
0.0
  0
LINE
  5
168
330
1F
100
AcDbEntity
  8
0
  6
Continuous
 62
     7
370
    30
100
AcDbLine
 10
9.2975576565
 20
4.09420345
 30
0.0
 11
9.2975576565
 21
4.0640512583
 31
0.0
  0
LINE
  5
169
330
1F
100
AcDbEntity
  8
0
  6
Continuous
 62
     7
370
    30
100
AcDbLine
 10
9.4195576871
 20
4.6751623987
 30
0.0
 11
9.4195576871
 21
4.7053145354
 31
0.0
  0
LINE
  5
16A
330
1F
100
AcDbEntity
  8
0
  6
Continuous
 62
     7
370
    30
100
AcDbLine
 10
9.2975576565
 20
4.7053145354
 30
0.0
 11
9.2975576565
 21
4.6751623987
 31
0.0
  0
LINE
  5
16B
330
1F
100
AcDbEntity
  8
0
  6
Continuous
 62
     7
370
    30
100
AcDbLine
 10
9.4195576871
 20
4.8973846228
 30
0.0
 11
9.4195576871
 21
4.9275367664
 31
0.0
  0
LINE
  5
16C
330
1F
100
AcDbEntity
  8
0
  6
Continuous
 62
     7
370
    30
100
AcDbLine
 10
9.2975576565
 20
4.9275367664
 30
0.0
 11
9.2975576565
 21
4.8973846228
 31
0.0
  0
LINE
  5
16D
330
1F
100
AcDbEntity
  8
0
  6
Continuous
 62
     7
370
    30
100
AcDbLine
 10
9.5285576279
 20
3.8138942015
 30
0.0
 11
9.4778144808
 21
3.8722677405
 31
0.0
  0
LINE
  5
16E
330
1F
100
AcDbEntity
  8
0
  6
Continuous
 62
     7
370
    30
100
AcDbLine
 10
9.2393008628
 20
3.8722677405
 30
0.0
 11
9.1885577156
 21
3.8138942015
 31
0.0
  0
LINE
  5
16F
330
1F
100
AcDbEntity
  8
0
  6
Continuous
 62
     7
370
    30
100
AcDbLine
 10
1.6525576788
 20
3.8138942015
 30
0.0
 11
1.6018145317
 21
3.8722677405
 31
0.0
  0
LINE
  5
170
330
1F
100
AcDbEntity
  8
0
  6
Continuous
 62
     7
370
    30
100
AcDbLine
 10
1.3633009137
 20
3.8722677405
 30
0.0
 11
1.3125577665
 21
3.8138942015
 31
0.0
  0
CIRCLE
  5
171
330
1F
100
AcDbEntity
  8
0
  6
Continuous
 62
     7
370
    30
100
AcDbCircle
 10
1.8725576972
 20
4.0758942334
 30
0.0
 40
0.0546874999999998
  0
CIRCLE
  5
172
330
1F
100
AcDbEntity
  8
0
  6
Continuous
 62
     7
370
    30
100
AcDbCircle
 10
8.9685576972
 20
4.0758942334
 30
0.0
 40
0.0546875
  0
LINE
  5
173
330
1F
100
AcDbEntity
  8
0
  6
Continuous
 62
     7
370
    30
100
AcDbLine
 10
2.7035576976
 20
4.7768942285
 30
0.0
 11
2.8691582912
 21
4.7768942285
 31
0.0
  0
LINE
  5
174
330
1F
100
AcDbEntity
  8
0
  6
Continuous
 62
     7
370
    30
100
AcDbLine
 10
6.0955577129
 20
5.0518942325
 30
0.0
 11
6.1398314681
 21
5.0518942325
 31
0.0
  0
LINE
  5
175
330
1F
100
AcDbEntity
  8
0
  6
Continuous
 62
     7
370
    30
100
AcDbLine
 10
6.1745977398
 20
5.0518942325
 30
0.0
 11
6.4165176518
 21
5.0518942325
 31
0.0
  0
LINE
  5
176
330
1F
100
AcDbEntity
  8
0
  6
Continuous
 62
     7
370
    30
100
AcDbLine
 10
6.4512839969
 20
5.0518942325
 30
0.0
 11
6.4955576787
 21
5.0518942325
 31
0.0
  0
LINE
  5
177
330
1F
100
AcDbEntity
  8
0
  6
Continuous
 62
     7
370
    30
100
AcDbLine
 10
6.1056018435
 20
5.0268942346
 30
0.0
 11
6.4855135481
 21
5.0268942346
 31
0.0
  0
SPLINE
  5
178
330
1F
100
AcDbEntity
  8
0
  6
Continuous
 62
     7
370
    30
100
AcDbSpline
210
0.0
220
0.0
230
1.0
 70
     8
 71
     3
 72
    13
 73
     9
 74
     0
 42
0.00000001
 43
0.00000001
 40
0.0
 40
0.0
 40
0.0
 40
0.0
 40
0.0633662730245222
 40
0.126602448852299
 40
0.2338913819325076
 40
0.422858873940483
 40
0.8232946189559616
 40
1.0
 40
1.0
 40
1.0
 40
1.0
 10
6.295557695828453
 20
5.161894235911256
 30
0.0
 10
6.295640539292624
 20
5.162787605438455
 30
0.0
 10
6.295806056135175
 20
5.164572510317266
 30
0.0
 10
6.297248552045961
 20
5.167486948997387
 30
0.0
 10
6.300470159590597
 20
5.170995478576859
 30
0.0
 10
6.308280373042303
 20
5.175165011338295
 30
0.0
 10
6.317625774938486
 20
5.176718819984068
 30
0.0
 10
6.324637201370672
 20
5.176853113754963
 30
0.0
 10
6.326783915100504
 20
5.176894230963367
 30
0.0
  0
LINE
  5
179
330
1F
100
AcDbEntity
  8
0
  6
Continuous
 62
     7
370
    30
100
AcDbLine
 10
6.3267839151
 20
5.176894231
 30
0.0
 11
6.4180510341
 21
5.176894231
 31
0.0
  0
SPLINE
  5
17A
330
1F
100
AcDbEntity
  8
0
  6
Continuous
 62
     7
370
    30
100
AcDbSpline
210
0.0
220
0.0
230
1.0
 70
     8
 71
     3
 72
    14
 73
    10
 74
     0
 42
0.00000001
 43
0.00000001
 40
0.0
 40
0.0
 40
0.0
 40
0.0
 40
0.1232265068072602
 40
0.5267767072039953
 40
0.6663309150637369
 40
0.8066011253105166
 40
0.8858237101019105
 40
0.9657624039434918
 40
1.0
 40
1.0
 40
1.0
 40
1.0
 10
6.418051034108291
 20
5.176894230963367
 30
0.0
 10
6.419548729620077
 20
5.176873769964067
 30
0.0
 10
6.425951176062283
 20
5.176786301949953
 30
0.0
 10
6.434124232930609
 20
5.175707824602535
 30
0.0
 10
6.441949296655023
 20
5.172396477742259
 30
0.0
 10
6.445724531975952
 20
5.169702644664175
 30
0.0
 10
6.448168839424811
 20
5.166543412370149
 30
0.0
 10
6.449170919089
 20
5.163981626668305
 30
0.0
 10
6.449252666709614
 20
5.162375776038665
 30
0.0
 10
6.449277180047854
 20
5.161894235911256
 30
0.0
  0
LINE
  5
17B
330
1F
100
AcDbEntity
  8
0
  6
Continuous
 62
     7
370
    30
100
AcDbLine
 10
6.44927718
 20
5.1618942359
 30
0.0
 11
6.44927718
 21
5.0526126525
 31
0.0
  0
LINE
  5
17C
330
1F
100
AcDbEntity
  8
0
  6
Continuous
 62
     7
370
    30
100
AcDbLine
 10
6.2955576958
 20
5.1618942359
 30
0.0
 11
6.2955576958
 21
5.1258942368
 31
0.0
  0
LINE
  5
17D
330
1F
100
AcDbEntity
  8
0
  6
Continuous
 62
     7
370
    30
100
AcDbLine
 10
6.2955576958
 20
5.1138942371
 30
0.0
 11
6.2955576958
 21
5.0518942325
 31
0.0
  0
SPLINE
  5
17E
330
1F
100
AcDbEntity
  8
0
  6
Continuous
 62
     7
370
    30
100
AcDbSpline
210
0.0
220
0.0
230
1.0
 70
     8
 71
     3
 72
    14
 73
    10
 74
     0
 42
0.00000001
 43
0.00000001
 40
0.0
 40
0.0
 40
0.0
 40
0.0
 40
0.1232278809156669
 40
0.5267776470299405
 40
0.6663317047077596
 40
0.8066017640020876
 40
0.8858242635377211
 40
0.9657622967562717
 40
1.0
 40
1.0
 40
1.0
 40
1.0
 10
6.264331476556403
 20
5.176894230963367
 30
0.0
 10
6.265829197430769
 20
5.17687377034108
 30
0.0
 10
6.272231692322701
 20
5.176786304757937
 30
0.0
 10
6.280404740496524
 20
5.175707823118272
 30
0.0
 10
6.288229819609302
 20
5.172396479413317
 30
0.0
 10
6.292005026090718
 20
5.169702639389404
 30
0.0
 10
6.294449393547663
 20
5.166543428929437
 30
0.0
 10
6.295451304556633
 20
5.163981609703013
 30
0.0
 10
6.295533152277684
 20
5.162375775080367
 30
0.0
 10
6.295557695828453
 20
5.161894235911256
 30
0.0
  0
LINE
  5
17F
330
1F
100
AcDbEntity
  8
0
  6
Continuous
 62
     7
370
    30
100
AcDbLine
 10
6.2643314766
 20
5.176894231
 30
0.0
 11
6.3267839151
 21
5.176894231
 31
0.0
  0
SPLINE
  5
180
330
1F
100
AcDbEntity
  8
0
  6
Continuous
 62
     7
370
    30
100
AcDbSpline
210
0.0
220
0.0
230
1.0
 70
     8
 71
     3
 72
    13
 73
     9
 74
     0
 42
0.00000001
 43
0.00000001
 40
0.0
 40
0.0
 40
0.0
 40
0.0
 40
0.0633663596830504
 40
0.1266026219914369
 40
0.233891701797981
 40
0.4228581082667038
 40
0.8232958844313649
 40
1.0
 40
1.0
 40
1.0
 40
1.0
 10
6.141838211609053
 20
5.161894235911256
 30
0.0
 10
6.141921055111915
 20
5.162787605411618
 30
0.0
 10
6.142086572031773
 20
5.164572510236806
 30
0.0
 10
6.143529067229345
 20
5.16748694941163
 30
0.0
 10
6.146750668729814
 20
5.170995461712792
 30
0.0
 10
6.154560815835898
 20
5.175165049414348
 30
0.0
 10
6.163906273115818
 20
5.17671881111634
 30
0.0
 10
6.170917670832329
 20
5.176853111943537
 30
0.0
 10
6.173064357548617
 20
5.176894230963367
 30
0.0
  0
LINE
  5
181
330
1F
100
AcDbEntity
  8
0
  6
Continuous
 62
     7
370
    30
100
AcDbLine
 10
6.1730643575
 20
5.176894231
 30
0.0
 11
6.2643314766
 21
5.176894231
 31
0.0
  0
LINE
  5
182
330
1F
100
AcDbEntity
  8
0
  6
Continuous
 62
     7
370
    30
100
AcDbLine
 10
6.1418382116
 20
5.1618942359
 30
0.0
 11
6.1418382116
 21
5.0526126525
 31
0.0
  0
SPLINE
  5
183
330
1F
100
AcDbEntity
  8
0
  6
Continuous
 62
     7
370
    30
100
AcDbSpline
210
0.0
220
0.0
230
1.0
 70
    24
 71
     3
 72
    14
 73
    10
 74
     0
 42
0.00000001
 43
0.00000001
 40
0.0
 40
0.0
 40
0.0
 40
0.0
 40
0.1739925795629019
 40
0.5318526853172157
 40
0.693072028873295
 40
0.8559957491923386
 40
0.9269757003168286
 40
0.9985150306218358
 40
1.0
 40
1.0
 40
1.0
 40
1.0
 10
6.141838211609053
 20
5.176894230963367
 30
0.0
 10
6.141838211609051
 20
5.176855421612755
 30
0.0
 10
6.141838211609053
 20
5.176736790936727
 30
0.0
 10
6.141838211609051
 20
5.175401489695635
 30
0.0
 10
6.141838211609051
 20
5.171970354323967
 30
0.0
 10
6.141838211609053
 20
5.168645993778323
 30
0.0
 10
6.141838211609053
 20
5.164975392310982
 30
0.0
 10
6.141838211609053
 20
5.162940395511265
 30
0.0
 10
6.141838211609053
 20
5.161915085867109
 30
0.0
 10
6.141838211609053
 20
5.161894235911256
 30
0.0
  0
LINE
  5
184
330
1F
100
AcDbEntity
  8
0
  6
Continuous
 62
     7
370
    30
100
AcDbLine
 10
6.1418382116
 20
5.176894231
 30
0.0
 11
6.1730643575
 21
5.176894231
 31
0.0
  0
SPLINE
  5
185
330
1F
100
AcDbEntity
  8
0
  6
Continuous
 62
     7
370
    30
100
AcDbSpline
210
0.0
220
0.0
230
1.0
 70
    24
 71
     3
 72
    13
 73
     9
 74
     0
 42
0.00000001
 43
0.00000001
 40
0.0
 40
0.0
 40
0.0
 40
0.0
 40
0.0408210566655007
 40
0.1012168528302943
 40
0.1942312101932022
 40
0.3488931186767335
 40
0.6576203061142486
 40
1.0
 40
1.0
 40
1.0
 40
1.0
 10
6.449277180047854
 20
5.161894235911256
 30
0.0
 10
6.449277180047854
 20
5.162468614162071
 30
0.0
 10
6.449277180047854
 20
5.163892799708226
 30
0.0
 10
6.449277180047854
 20
5.166456128848132
 30
0.0
 10
6.449277180047854
 20
5.169781795002507
 30
0.0
 10
6.449277180047853
 20
5.173803212766455
 30
0.0
 10
6.449277180047854
 20
5.176500948299913
 30
0.0
 10
6.449277180047854
 20
5.176758696169757
 30
0.0
 10
6.449277180047854
 20
5.176894230963367
 30
0.0
  0
LINE
  5
186
330
1F
100
AcDbEntity
  8
0
  6
Continuous
 62
     7
370
    30
100
AcDbLine
 10
6.4180510341
 20
5.176894231
 30
0.0
 11
6.44927718
 21
5.176894231
 31
0.0
  0
LINE
  5
187
330
1F
100
AcDbEntity
  8
0
  6
Continuous
 62
     7
370
    30
100
AcDbLine
 10
6.203557692
 20
4.7768942285
 30
0.0
 11
6.3691584323
 21
4.7768942285
 31
0.0
  0
LINE
  5
188
330
1F
100
AcDbEntity
  8
0
  6
Continuous
 62
     7
370
    30
100
AcDbLine
 10
4.4535576948
 20
4.7768942285
 30
0.0
 11
4.6191584351
 21
4.7768942285
 31
0.0
  0
LINE
  5
189
330
1F
100
AcDbEntity
  8
0
  6
Continuous
 62
     7
370
    30
100
AcDbLine
 10
7.9535576891
 20
4.7768942285
 30
0.0
 11
8.1191582828
 21
4.7768942285
 31
0.0
  0
LINE
  5
18A
330
1F
100
AcDbEntity
  8
0
  6
Continuous
 62
     7
370
    30
100
AcDbLine
 10
7.8111886805
 20
4.8139105792
 30
0.0
 11
7.8565872093
 21
4.8017460855
 31
0.0
  0
LINE
  5
18B
330
1F
100
AcDbEntity
  8
0
  6
Continuous
 62
     7
370
    30
100
AcDbLine
 10
7.8142946046
 20
4.8255016953
 30
0.0
 11
7.8596929868
 21
4.8133372016
 31
0.0
  0
ARC
  5
18C
330
1F
100
AcDbEntity
  8
0
  6
Continuous
 62
     7
370
    30
100
AcDbCircle
 10
7.9131500867
 20
5.0729881169
 30
0.0
 40
0.0120000000000001
100
AcDbArc
 50
289.6973630774
 51
322.2281218619
  0
ARC
  5
18D
330
1F
100
AcDbEntity
  8
0
  6
Continuous
 62
     7
370
    30
100
AcDbCircle
 10
8.0455576972
 20
4.9703862969
 30
0.0
 40
0.1555079365079364
100
AcDbArc
 50
37.7718781381
 51
142.2281218619
  0
ARC
  5
18E
330
1F
100
AcDbEntity
  8
0
  6
Continuous
 62
     7
370
    30
100
AcDbCircle
 10
8.1779653078
 20
5.0729881169
 30
0.0
 40
0.0120000000000008
100
AcDbArc
 50
217.7718781381
 51
250.3026369226
  0
LINE
  5
18F
330
1F
100
AcDbEntity
  8
0
  6
Continuous
 62
     7
370
    30
100
AcDbLine
 10
8.1739206368
 20
5.0616902885
 30
0.0
 11
8.2919035139
 21
5.0194524356
 31
0.0
  0
LINE
  5
190
330
1F
100
AcDbEntity
  8
0
  6
Continuous
 62
     7
370
    30
100
AcDbLine
 10
8.2605576893
 20
4.8388942331
 30
0.0
 11
8.2280576114
 21
4.8388942331
 31
0.0
  0
LINE
  5
191
330
1F
100
AcDbEntity
  8
0
  6
Continuous
 62
     7
370
    30
100
AcDbLine
 10
8.2314223992
 20
4.8133372016
 30
0.0
 11
8.2768207814
 21
4.8255016953
 31
0.0
  0
LINE
  5
192
330
1F
100
AcDbEntity
  8
0
  6
Continuous
 62
     7
370
    30
100
AcDbLine
 10
8.2768207814
 20
4.8255016953
 30
0.0
 11
8.2799265589
 21
4.8139105792
 31
0.0
  0
LINE
  5
193
330
1F
100
AcDbEntity
  8
0
  6
Continuous
 62
     7
370
    30
100
AcDbLine
 10
8.2345281767
 20
4.8017460855
 30
0.0
 11
8.2799265589
 21
4.8139105792
 31
0.0
  0
LINE
  5
194
330
1F
100
AcDbEntity
  8
0
  6
Continuous
 62
     7
370
    30
100
AcDbLine
 10
8.2605576893
 20
4.8508942328
 30
0.0
 11
8.2280576114
 21
4.8508942328
 31
0.0
  0
ARC
  5
195
330
1F
100
AcDbEntity
  8
0
  6
Continuous
 62
     7
370
    30
100
AcDbCircle
 10
8.2280576972
 20
4.8258942334
 30
0.0
 40
0.0129999999999999
100
AcDbArc
 50
90.0
 51
285.0
  0
ARC
  5
196
330
1F
100
AcDbEntity
  8
0
  6
Continuous
 62
     7
370
    30
100
AcDbCircle
 10
7.8630576972
 20
4.8258942334
 30
0.0
 40
0.0250000000000004
100
AcDbArc
 50
255.0
 51
90.0
  0
LINE
  5
197
330
1F
100
AcDbEntity
  8
0
  6
Continuous
 62
     7
370
    30
100
AcDbLine
 10
7.7992118722
 20
5.0194524356
 30
0.0
 11
7.9171947492
 21
5.0616902885
 31
0.0
  0
ARC
  5
198
330
1F
100
AcDbEntity
  8
0
  6
Continuous
 62
     7
370
    30
100
AcDbCircle
 10
7.8305576972
 20
4.9318942334
 30
0.0
 40
0.0930000000000009
100
AcDbArc
 50
109.6973630774
 51
270.0
  0
LINE
  5
199
330
1F
100
AcDbEntity
  8
0
  6
Continuous
 62
     7
370
    30
100
AcDbLine
 10
7.8630576279
 20
4.8508942328
 30
0.0
 11
7.8305576967
 21
4.8508942328
 31
0.0
  0
ARC
  5
19A
330
1F
100
AcDbEntity
  8
0
  6
Continuous
 62
     7
370
    30
100
AcDbCircle
 10
8.2605576972
 20
4.9318942334
 30
0.0
 40
0.0930000000000009
100
AcDbArc
 50
270.0
 51
70.3026369226
  0
LINE
  5
19B
330
1F
100
AcDbEntity
  8
0
  6
Continuous
 62
     7
370
    30
100
AcDbLine
 10
7.8630576279
 20
4.8388942331
 30
0.0
 11
7.8305576967
 21
4.8388942331
 31
0.0
  0
ARC
  5
19C
330
1F
100
AcDbEntity
  8
0
  6
Continuous
 62
     7
370
    30
100
AcDbCircle
 10
7.8630576972
 20
4.8258942334
 30
0.0
 40
0.0129999999999999
100
AcDbArc
 50
255.0
 51
90.0
  0
LINE
  5
19D
330
1F
100
AcDbEntity
  8
0
  6
Continuous
 62
     7
370
    30
100
AcDbLine
 10
7.8111886805
 20
4.8139105792
 30
0.0
 11
7.8142946046
 21
4.8255016953
 31
0.0
  0
ARC
  5
19E
330
1F
100
AcDbEntity
  8
0
  6
Continuous
 62
     7
370
    30
100
AcDbCircle
 10
7.9131500867
 20
5.0729881169
 30
0.0
 40
0.0240000000000001
100
AcDbArc
 50
289.6973630774
 51
322.2281218619
  0
LINE
  5
19F
330
1F
100
AcDbEntity
  8
0
  6
Continuous
 62
     7
370
    30
100
AcDbLine
 10
7.8032564521
 20
5.0081546036
 30
0.0
 11
7.9212394758
 21
5.0503924473
 31
0.0
  0
ARC
  5
1A0
330
1F
100
AcDbEntity
  8
0
  6
Continuous
 62
     7
370
    30
100
AcDbCircle
 10
7.8305576972
 20
4.9318942334
 30
0.0
 40
0.0810000000000004
100
AcDbArc
 50
109.6973630774
 51
270.0
  0
ARC
  5
1A1
330
1F
100
AcDbEntity
  8
0
  6
Continuous
 62
     7
370
    30
100
AcDbCircle
 10
8.2280576972
 20
4.8258942334
 30
0.0
 40
0.0250000000000004
100
AcDbArc
 50
90.0
 51
285.0
  0
ARC
  5
1A2
330
1F
100
AcDbEntity
  8
0
  6
Continuous
 62
     7
370
    30
100
AcDbCircle
 10
8.0455576972
 20
4.9703862969
 30
0.0
 40
0.143507936507937
100
AcDbArc
 50
37.7718781381
 51
142.2281218619
  0
ARC
  5
1A3
330
1F
100
AcDbEntity
  8
0
  6
Continuous
 62
     7
370
    30
100
AcDbCircle
 10
8.1779653078
 20
5.0729881169
 30
0.0
 40
0.0240000000000001
100
AcDbArc
 50
217.7718781381
 51
250.3026369226
  0
LINE
  5
1A4
330
1F
100
AcDbEntity
  8
0
  6
Continuous
 62
     7
370
    30
100
AcDbLine
 10
8.1698762035
 20
5.0503924473
 30
0.0
 11
8.2878587873
 21
5.0081546036
 31
0.0
  0
ARC
  5
1A5
330
1F
100
AcDbEntity
  8
0
  6
Continuous
 62
     7
370
    30
100
AcDbCircle
 10
8.2605576972
 20
4.9318942334
 30
0.0
 40
0.0810000000000004
100
AcDbArc
 50
270.0
 51
70.3026369226
  0
ARC
  5
1A6
330
1F
100
AcDbEntity
  8
0
  6
Continuous
 62
     7
370
    30
100
AcDbCircle
 10
2.9780576972
 20
4.8258942334
 30
0.0
 40
0.0250000000000004
100
AcDbArc
 50
90.0
 51
285.0
  0
ARC
  5
1A7
330
1F
100
AcDbEntity
  8
0
  6
Continuous
 62
     7
370
    30
100
AcDbCircle
 10
3.0105576972
 20
4.9318942334
 30
0.0
 40
0.0810000000000004
100
AcDbArc
 50
270.0
 51
70.3026369226
  0
LINE
  5
1A8
330
1F
100
AcDbEntity
  8
0
  6
Continuous
 62
     7
370
    30
100
AcDbLine
 10
2.9198759187
 20
5.0503924473
 30
0.0
 11
3.0378589424
 21
5.0081546036
 31
0.0
  0
ARC
  5
1A9
330
1F
100
AcDbEntity
  8
0
  6
Continuous
 62
     7
370
    30
100
AcDbCircle
 10
2.9279653078
 20
5.0729881169
 30
0.0
 40
0.0240000000000001
100
AcDbArc
 50
217.7718781381
 51
250.3026369226
  0
ARC
  5
1AA
330
1F
100
AcDbEntity
  8
0
  6
Continuous
 62
     7
370
    30
100
AcDbCircle
 10
2.6631500867
 20
5.0729881169
 30
0.0
 40
0.0240000000000001
100
AcDbArc
 50
289.6973630774
 51
322.2281218619
  0
LINE
  5
1AB
330
1F
100
AcDbEntity
  8
0
  6
Continuous
 62
     7
370
    30
100
AcDbLine
 10
2.5532566072
 20
5.0081546036
 30
0.0
 11
2.6712391909
 21
5.0503924473
 31
0.0
  0
LINE
  5
1AC
330
1F
100
AcDbEntity
  8
0
  6
Continuous
 62
     7
370
    30
100
AcDbLine
 10
2.613057783
 20
4.8508942328
 30
0.0
 11
2.5805577052
 21
4.8508942328
 31
0.0
  0
ARC
  5
1AD
330
1F
100
AcDbEntity
  8
0
  6
Continuous
 62
     7
370
    30
100
AcDbCircle
 10
2.6130576972
 20
4.8258942334
 30
0.0
 40
0.0250000000000004
100
AcDbArc
 50
255.0
 51
90.0
  0
LINE
  5
1AE
330
1F
100
AcDbEntity
  8
0
  6
Continuous
 62
     7
370
    30
100
AcDbLine
 10
2.5611888356
 20
4.8139105792
 30
0.0
 11
2.6065872178
 21
4.8017460855
 31
0.0
  0
LINE
  5
1AF
330
1F
100
AcDbEntity
  8
0
  6
Continuous
 62
     7
370
    30
100
AcDbLine
 10
2.5611888356
 20
4.8139105792
 30
0.0
 11
2.564294613
 21
4.8255016953
 31
0.0
  0
LINE
  5
1B0
330
1F
100
AcDbEntity
  8
0
  6
Continuous
 62
     7
370
    30
100
AcDbLine
 10
2.564294613
 20
4.8255016953
 30
0.0
 11
2.6096929953
 21
4.8133372016
 31
0.0
  0
ARC
  5
1B1
330
1F
100
AcDbEntity
  8
0
  6
Continuous
 62
     7
370
    30
100
AcDbCircle
 10
2.6130576972
 20
4.8258942334
 30
0.0
 40
0.0129999999999999
100
AcDbArc
 50
255.0
 51
90.0
  0
LINE
  5
1B2
330
1F
100
AcDbEntity
  8
0
  6
Continuous
 62
     7
370
    30
100
AcDbLine
 10
2.613057783
 20
4.8388942331
 30
0.0
 11
2.5805577052
 21
4.8388942331
 31
0.0
  0
ARC
  5
1B3
330
1F
100
AcDbEntity
  8
0
  6
Continuous
 62
     7
370
    30
100
AcDbCircle
 10
2.5805576972
 20
4.9318942334
 30
0.0
 40
0.0930000000000009
100
AcDbArc
 50
109.6973630774
 51
270.0
  0
ARC
  5
1B4
330
1F
100
AcDbEntity
  8
0
  6
Continuous
 62
     7
370
    30
100
AcDbCircle
 10
2.6631500867
 20
5.0729881169
 30
0.0
 40
0.0120000000000001
100
AcDbArc
 50
289.6973630774
 51
322.2281218619
  0
ARC
  5
1B5
330
1F
100
AcDbEntity
  8
0
  6
Continuous
 62
     7
370
    30
100
AcDbCircle
 10
2.7955576972
 20
4.9703862969
 30
0.0
 40
0.1555079365079367
100
AcDbArc
 50
37.7718781381
 51
142.2281218619
  0
LINE
  5
1B6
330
1F
100
AcDbEntity
  8
0
  6
Continuous
 62
     7
370
    30
100
AcDbLine
 10
2.9239206453
 20
5.0616902885
 30
0.0
 11
3.0419035223
 21
5.0194524356
 31
0.0
  0
ARC
  5
1B7
330
1F
100
AcDbEntity
  8
0
  6
Continuous
 62
     7
370
    30
100
AcDbCircle
 10
3.0105576972
 20
4.9318942334
 30
0.0
 40
0.0930000000000009
100
AcDbArc
 50
270.0
 51
70.3026369226
  0
LINE
  5
1B8
330
1F
100
AcDbEntity
  8
0
  6
Continuous
 62
     7
370
    30
100
AcDbLine
 10
3.0105576978
 20
4.8388942331
 30
0.0
 11
2.9780577665
 21
4.8388942331
 31
0.0
  0
LINE
  5
1B9
330
1F
100
AcDbEntity
  8
0
  6
Continuous
 62
     7
370
    30
100
AcDbLine
 10
2.9845281851
 20
4.8017460855
 30
0.0
 11
3.029926714
 21
4.8139105792
 31
0.0
  0
LINE
  5
1BA
330
1F
100
AcDbEntity
  8
0
  6
Continuous
 62
     7
370
    30
100
AcDbLine
 10
3.0105576978
 20
4.8508942328
 30
0.0
 11
2.9780577665
 21
4.8508942328
 31
0.0
  0
LINE
  5
1BB
330
1F
100
AcDbEntity
  8
0
  6
Continuous
 62
     7
370
    30
100
AcDbLine
 10
2.9814224077
 20
4.8133372016
 30
0.0
 11
3.0268207899
 21
4.8255016953
 31
0.0
  0
LINE
  5
1BC
330
1F
100
AcDbEntity
  8
0
  6
Continuous
 62
     7
370
    30
100
AcDbLine
 10
3.0268207899
 20
4.8255016953
 30
0.0
 11
3.029926714
 21
4.8139105792
 31
0.0
  0
ARC
  5
1BD
330
1F
100
AcDbEntity
  8
0
  6
Continuous
 62
     7
370
    30
100
AcDbCircle
 10
2.9780576972
 20
4.8258942334
 30
0.0
 40
0.0129999999999999
100
AcDbArc
 50
90.0
 51
285.0
  0
LINE
  5
1BE
330
1F
100
AcDbEntity
  8
0
  6
Continuous
 62
     7
370
    30
100
AcDbLine
 10
2.5492118806
 20
5.0194524356
 30
0.0
 11
2.6671947577
 21
5.0616902885
 31
0.0
  0
ARC
  5
1BF
330
1F
100
AcDbEntity
  8
0
  6
Continuous
 62
     7
370
    30
100
AcDbCircle
 10
2.5805576972
 20
4.9318942334
 30
0.0
 40
0.0810000000000004
100
AcDbArc
 50
109.6973630774
 51
270.0
  0
ARC
  5
1C0
330
1F
100
AcDbEntity
  8
0
  6
Continuous
 62
     7
370
    30
100
AcDbCircle
 10
2.7955576972
 20
4.9703862969
 30
0.0
 40
0.143507936507937
100
AcDbArc
 50
37.7718781381
 51
142.2281218619
  0
ARC
  5
1C1
330
1F
100
AcDbEntity
  8
0
  6
Continuous
 62
     7
370
    30
100
AcDbCircle
 10
2.9279653078
 20
5.0729881169
 30
0.0
 40
0.0120000000000001
100
AcDbArc
 50
217.7718781381
 51
250.3026369226
  0
ARC
  5
1C2
330
1F
100
AcDbEntity
  8
0
  6
Continuous
 62
     7
370
    30
100
AcDbCircle
 10
4.7280576972
 20
4.8258942334
 30
0.0
 40
0.0250000000000004
100
AcDbArc
 50
90.0
 51
285.0
  0
LINE
  5
1C3
330
1F
100
AcDbEntity
  8
0
  6
Continuous
 62
     7
370
    30
100
AcDbLine
 10
4.7605576949
 20
4.8508942328
 30
0.0
 11
4.7280576904
 21
4.8508942328
 31
0.0
  0
ARC
  5
1C4
330
1F
100
AcDbEntity
  8
0
  6
Continuous
 62
     7
370
    30
100
AcDbCircle
 10
4.7605576972
 20
4.9318942334
 30
0.0
 40
0.0810000000000004
100
AcDbArc
 50
270.0
 51
70.3026369226
  0
LINE
  5
1C5
330
1F
100
AcDbEntity
  8
0
  6
Continuous
 62
     7
370
    30
100
AcDbLine
 10
4.6698760625
 20
5.0503924473
 30
0.0
 11
4.7878589396
 21
5.0081546036
 31
0.0
  0
ARC
  5
1C6
330
1F
100
AcDbEntity
  8
0
  6
Continuous
 62
     7
370
    30
100
AcDbCircle
 10
4.6779653078
 20
5.0729881169
 30
0.0
 40
0.0240000000000001
100
AcDbArc
 50
217.7718781381
 51
250.3026369226
  0
ARC
  5
1C7
330
1F
100
AcDbEntity
  8
0
  6
Continuous
 62
     7
370
    30
100
AcDbCircle
 10
4.5455576972
 20
4.9703862969
 30
0.0
 40
0.143507936507937
100
AcDbArc
 50
37.7718781381
 51
142.2281218619
  0
ARC
  5
1C8
330
1F
100
AcDbEntity
  8
0
  6
Continuous
 62
     7
370
    30
100
AcDbCircle
 10
4.4131500867
 20
5.0729881169
 30
0.0
 40
0.0240000000000001
100
AcDbArc
 50
289.6973630774
 51
322.2281218619
  0
LINE
  5
1C9
330
1F
100
AcDbEntity
  8
0
  6
Continuous
 62
     7
370
    30
100
AcDbLine
 10
4.3032564577
 20
5.0081546036
 30
0.0
 11
4.4212393348
 21
5.0503924473
 31
0.0
  0
ARC
  5
1CA
330
1F
100
AcDbEntity
  8
0
  6
Continuous
 62
     7
370
    30
100
AcDbCircle
 10
4.3305576972
 20
4.9318942334
 30
0.0
 40
0.0810000000000004
100
AcDbArc
 50
109.6973630774
 51
270.0
  0
LINE
  5
1CB
330
1F
100
AcDbEntity
  8
0
  6
Continuous
 62
     7
370
    30
100
AcDbLine
 10
4.3630577069
 20
4.8508942328
 30
0.0
 11
4.3305577023
 21
4.8508942328
 31
0.0
  0
ARC
  5
1CC
330
1F
100
AcDbEntity
  8
0
  6
Continuous
 62
     7
370
    30
100
AcDbCircle
 10
4.3630576972
 20
4.8258942334
 30
0.0
 40
0.0250000000000004
100
AcDbArc
 50
255.0
 51
90.0
  0
LINE
  5
1CD
330
1F
100
AcDbEntity
  8
0
  6
Continuous
 62
     7
370
    30
100
AcDbLine
 10
4.3111886861
 20
4.8139105792
 30
0.0
 11
4.356587215
 21
4.8017460855
 31
0.0
  0
LINE
  5
1CE
330
1F
100
AcDbEntity
  8
0
  6
Continuous
 62
     7
370
    30
100
AcDbLine
 10
4.3111886861
 20
4.8139105792
 30
0.0
 11
4.3142945369
 21
4.8255016953
 31
0.0
  0
LINE
  5
1CF
330
1F
100
AcDbEntity
  8
0
  6
Continuous
 62
     7
370
    30
100
AcDbLine
 10
4.3142945369
 20
4.8255016953
 30
0.0
 11
4.3596930658
 21
4.8133372016
 31
0.0
  0
ARC
  5
1D0
330
1F
100
AcDbEntity
  8
0
  6
Continuous
 62
     7
370
    30
100
AcDbCircle
 10
4.3630576972
 20
4.8258942334
 30
0.0
 40
0.0129999999999999
100
AcDbArc
 50
255.0
 51
90.0
  0
LINE
  5
1D1
330
1F
100
AcDbEntity
  8
0
  6
Continuous
 62
     7
370
    30
100
AcDbLine
 10
4.3630577069
 20
4.8388942331
 30
0.0
 11
4.3305577023
 21
4.8388942331
 31
0.0
  0
ARC
  5
1D2
330
1F
100
AcDbEntity
  8
0
  6
Continuous
 62
     7
370
    30
100
AcDbCircle
 10
4.3305576972
 20
4.9318942334
 30
0.0
 40
0.0930000000000009
100
AcDbArc
 50
109.6973630774
 51
270.0
  0
LINE
  5
1D3
330
1F
100
AcDbEntity
  8
0
  6
Continuous
 62
     7
370
    30
100
AcDbLine
 10
4.2992118778
 20
5.0194524356
 30
0.0
 11
4.4171946815
 21
5.0616902885
 31
0.0
  0
ARC
  5
1D4
330
1F
100
AcDbEntity
  8
0
  6
Continuous
 62
     7
370
    30
100
AcDbCircle
 10
4.4131500867
 20
5.0729881169
 30
0.0
 40
0.0120000000000001
100
AcDbArc
 50
289.6973630774
 51
322.2281218619
  0
ARC
  5
1D5
330
1F
100
AcDbEntity
  8
0
  6
Continuous
 62
     7
370
    30
100
AcDbCircle
 10
4.5455576972
 20
4.9703862969
 30
0.0
 40
0.1555079365079371
100
AcDbArc
 50
37.7718781381
 51
142.2281218619
  0
ARC
  5
1D6
330
1F
100
AcDbEntity
  8
0
  6
Continuous
 62
     7
370
    30
100
AcDbCircle
 10
4.6779653078
 20
5.0729881169
 30
0.0
 40
0.0119999999999994
100
AcDbArc
 50
217.7718781381
 51
250.3026369226
  0
LINE
  5
1D7
330
1F
100
AcDbEntity
  8
0
  6
Continuous
 62
     7
370
    30
100
AcDbLine
 10
4.6739207158
 20
5.0616902885
 30
0.0
 11
4.7919035195
 21
5.0194524356
 31
0.0
  0
ARC
  5
1D8
330
1F
100
AcDbEntity
  8
0
  6
Continuous
 62
     7
370
    30
100
AcDbCircle
 10
4.7605576972
 20
4.9318942334
 30
0.0
 40
0.0930000000000009
100
AcDbArc
 50
270.0
 51
70.3026369226
  0
LINE
  5
1D9
330
1F
100
AcDbEntity
  8
0
  6
Continuous
 62
     7
370
    30
100
AcDbLine
 10
4.7605576949
 20
4.8388942331
 30
0.0
 11
4.7280576904
 21
4.8388942331
 31
0.0
  0
ARC
  5
1DA
330
1F
100
AcDbEntity
  8
0
  6
Continuous
 62
     7
370
    30
100
AcDbCircle
 10
4.7280576972
 20
4.8258942334
 30
0.0
 40
0.0129999999999999
100
AcDbArc
 50
90.0
 51
285.0
  0
LINE
  5
1DB
330
1F
100
AcDbEntity
  8
0
  6
Continuous
 62
     7
370
    30
100
AcDbLine
 10
4.7314223315
 20
4.8133372016
 30
0.0
 11
4.7768208604
 21
4.8255016953
 31
0.0
  0
LINE
  5
1DC
330
1F
100
AcDbEntity
  8
0
  6
Continuous
 62
     7
370
    30
100
AcDbLine
 10
4.7768208604
 20
4.8255016953
 30
0.0
 11
4.7799267112
 21
4.8139105792
 31
0.0
  0
LINE
  5
1DD
330
1F
100
AcDbEntity
  8
0
  6
Continuous
 62
     7
370
    30
100
AcDbLine
 10
4.7345281823
 20
4.8017460855
 30
0.0
 11
4.7799267112
 21
4.8139105792
 31
0.0
  0
ARC
  5
1DE
330
1F
100
AcDbEntity
  8
0
  6
Continuous
 62
     7
370
    30
100
AcDbCircle
 10
6.4780576972
 20
4.8258942334
 30
0.0
 40
0.0250000000000004
100
AcDbArc
 50
90.0
 51
285.0
  0
LINE
  5
1DF
330
1F
100
AcDbEntity
  8
0
  6
Continuous
 62
     7
370
    30
100
AcDbLine
 10
6.5105576921
 20
4.8508942328
 30
0.0
 11
6.4780576876
 21
4.8508942328
 31
0.0
  0
ARC
  5
1E0
330
1F
100
AcDbEntity
  8
0
  6
Continuous
 62
     7
370
    30
100
AcDbCircle
 10
6.5105576972
 20
4.9318942334
 30
0.0
 40
0.0810000000000004
100
AcDbArc
 50
270.0
 51
70.3026369226
  0
LINE
  5
1E1
330
1F
100
AcDbEntity
  8
0
  6
Continuous
 62
     7
370
    30
100
AcDbLine
 10
6.4198760597
 20
5.0503924473
 30
0.0
 11
6.5378589367
 21
5.0081546036
 31
0.0
  0
ARC
  5
1E2
330
1F
100
AcDbEntity
  8
0
  6
Continuous
 62
     7
370
    30
100
AcDbCircle
 10
6.4279653078
 20
5.0729881169
 30
0.0
 40
0.0240000000000001
100
AcDbArc
 50
217.7718781381
 51
250.3026369226
  0
ARC
  5
1E3
330
1F
100
AcDbEntity
  8
0
  6
Continuous
 62
     7
370
    30
100
AcDbCircle
 10
6.2955576972
 20
4.9703862969
 30
0.0
 40
0.1435079365079377
100
AcDbArc
 50
37.7718781381
 51
142.2281218619
  0
ARC
  5
1E4
330
1F
100
AcDbEntity
  8
0
  6
Continuous
 62
     7
370
    30
100
AcDbCircle
 10
6.1631500867
 20
5.0729881169
 30
0.0
 40
0.0240000000000004
100
AcDbArc
 50
289.6973630774
 51
322.2281218619
  0
LINE
  5
1E5
330
1F
100
AcDbEntity
  8
0
  6
Continuous
 62
     7
370
    30
100
AcDbLine
 10
6.0532564549
 20
5.0081546036
 30
0.0
 11
6.171239332
 21
5.0503924473
 31
0.0
  0
ARC
  5
1E6
330
1F
100
AcDbEntity
  8
0
  6
Continuous
 62
     7
370
    30
100
AcDbCircle
 10
6.0805576972
 20
4.9318942334
 30
0.0
 40
0.0810000000000004
100
AcDbArc
 50
109.6973630774
 51
270.0
  0
LINE
  5
1E7
330
1F
100
AcDbEntity
  8
0
  6
Continuous
 62
     7
370
    30
100
AcDbLine
 10
6.1130577041
 20
4.8508942328
 30
0.0
 11
6.0805576995
 21
4.8508942328
 31
0.0
  0
ARC
  5
1E8
330
1F
100
AcDbEntity
  8
0
  6
Continuous
 62
     7
370
    30
100
AcDbCircle
 10
6.1130576972
 20
4.8258942334
 30
0.0
 40
0.0250000000000004
100
AcDbArc
 50
255.0
 51
90.0
  0
LINE
  5
1E9
330
1F
100
AcDbEntity
  8
0
  6
Continuous
 62
     7
370
    30
100
AcDbLine
 10
6.0611886833
 20
4.8139105792
 30
0.0
 11
6.1065872122
 21
4.8017460855
 31
0.0
  0
LINE
  5
1EA
330
1F
100
AcDbEntity
  8
0
  6
Continuous
 62
     7
370
    30
100
AcDbLine
 10
6.049211875
 20
5.0194524356
 30
0.0
 11
6.1671946787
 21
5.0616902885
 31
0.0
  0
ARC
  5
1EB
330
1F
100
AcDbEntity
  8
0
  6
Continuous
 62
     7
370
    30
100
AcDbCircle
 10
6.2955576972
 20
4.9703862969
 30
0.0
 40
0.1555079365079378
100
AcDbArc
 50
37.7718781381
 51
142.2281218619
  0
ARC
  5
1EC
330
1F
100
AcDbEntity
  8
0
  6
Continuous
 62
     7
370
    30
100
AcDbCircle
 10
6.4279653078
 20
5.0729881169
 30
0.0
 40
0.0119999999999994
100
AcDbArc
 50
217.7718781381
 51
250.3026369226
  0
LINE
  5
1ED
330
1F
100
AcDbEntity
  8
0
  6
Continuous
 62
     7
370
    30
100
AcDbLine
 10
6.423920713
 20
5.0616902885
 30
0.0
 11
6.5419035167
 21
5.0194524356
 31
0.0
  0
ARC
  5
1EE
330
1F
100
AcDbEntity
  8
0
  6
Continuous
 62
     7
370
    30
100
AcDbCircle
 10
6.5105576972
 20
4.9318942334
 30
0.0
 40
0.0930000000000009
100
AcDbArc
 50
270.0
 51
70.3026369226
  0
LINE
  5
1EF
330
1F
100
AcDbEntity
  8
0
  6
Continuous
 62
     7
370
    30
100
AcDbLine
 10
6.5105576921
 20
4.8388942331
 30
0.0
 11
6.4780576876
 21
4.8388942331
 31
0.0
  0
ARC
  5
1F0
330
1F
100
AcDbEntity
  8
0
  6
Continuous
 62
     7
370
    30
100
AcDbCircle
 10
6.4780576972
 20
4.8258942334
 30
0.0
 40
0.0129999999999999
100
AcDbArc
 50
90.0
 51
285.0
  0
LINE
  5
1F1
330
1F
100
AcDbEntity
  8
0
  6
Continuous
 62
     7
370
    30
100
AcDbLine
 10
6.4814223287
 20
4.8133372016
 30
0.0
 11
6.5268208576
 21
4.8255016953
 31
0.0
  0
LINE
  5
1F2
330
1F
100
AcDbEntity
  8
0
  6
Continuous
 62
     7
370
    30
100
AcDbLine
 10
6.5268208576
 20
4.8255016953
 30
0.0
 11
6.5299267084
 21
4.8139105792
 31
0.0
  0
ARC
  5
1F3
330
1F
100
AcDbEntity
  8
0
  6
Continuous
 62
     7
370
    30
100
AcDbCircle
 10
6.0805576972
 20
4.9318942334
 30
0.0
 40
0.0930000000000009
100
AcDbArc
 50
109.6973630774
 51
270.0
  0
ARC
  5
1F4
330
1F
100
AcDbEntity
  8
0
  6
Continuous
 62
     7
370
    30
100
AcDbCircle
 10
6.1631500867
 20
5.0729881169
 30
0.0
 40
0.0119999999999994
100
AcDbArc
 50
289.6973630774
 51
322.2281218619
  0
LINE
  5
1F5
330
1F
100
AcDbEntity
  8
0
  6
Continuous
 62
     7
370
    30
100
AcDbLine
 10
6.0611886833
 20
4.8139105792
 30
0.0
 11
6.0642945341
 21
4.8255016953
 31
0.0
  0
ARC
  5
1F6
330
1F
100
AcDbEntity
  8
0
  6
Continuous
 62
     7
370
    30
100
AcDbCircle
 10
6.1130576972
 20
4.8258942334
 30
0.0
 40
0.0129999999999999
100
AcDbArc
 50
255.0
 51
90.0
  0
LINE
  5
1F7
330
1F
100
AcDbEntity
  8
0
  6
Continuous
 62
     7
370
    30
100
AcDbLine
 10
6.4845281795
 20
4.8017460855
 30
0.0
 11
6.5299267084
 21
4.8139105792
 31
0.0
  0
LINE
  5
1F8
330
1F
100
AcDbEntity
  8
0
  6
Continuous
 62
     7
370
    30
100
AcDbLine
 10
6.1130577041
 20
4.8388942331
 30
0.0
 11
6.0805576995
 21
4.8388942331
 31
0.0
  0
LINE
  5
1F9
330
1F
100
AcDbEntity
  8
0
  6
Continuous
 62
     7
370
    30
100
AcDbLine
 10
6.0642945341
 20
4.8255016953
 30
0.0
 11
6.109693063
 21
4.8133372016
 31
0.0
  0
ARC
  5
1FA
330
1F
100
AcDbEntity
  8
0
  6
Continuous
 62
     7
370
    30
100
AcDbCircle
 10
7.8875576972
 20
4.7387148207
 30
0.0
 40
0.032
100
AcDbArc
 50
119.8355602232
 51
180.0
  0
ARC
  5
1FB
330
1F
100
AcDbEntity
  8
0
  6
Continuous
 62
     7
370
    30
100
AcDbCircle
 10
7.7286115054
 20
4.3414790885
 30
0.0
 40
0.045000000000001
100
AcDbArc
 50
116.7854683781
 51
188.0229869069
  0
ARC
  5
1FC
330
1F
100
AcDbEntity
  8
0
  6
Continuous
 62
     7
370
    30
100
AcDbCircle
 10
7.8375576972
 20
4.8258942334
 30
0.0
 40
0.0505000000000004
100
AcDbArc
 50
299.8355602232
 51
110.0
  0
LINE
  5
1FD
330
1F
100
AcDbEntity
  8
0
  6
Continuous
 62
     7
370
    30
100
AcDbLine
 10
8.0195578067
 20
4.1938941983
 30
0.0
 11
8.0375577054
 21
4.1938941983
 31
0.0
  0
LINE
  5
1FE
330
1F
100
AcDbEntity
  8
0
  6
Continuous
 62
     7
370
    30
100
AcDbLine
 10
8.0375577054
 20
4.1938941983
 30
0.0
 11
8.0375577054
 21
4.0638942534
 31
0.0
  0
ARC
  5
1FF
330
1F
100
AcDbEntity
  8
0
  6
Continuous
 62
     7
370
    30
100
AcDbCircle
 10
8.0375576972
 20
4.3850250479
 30
0.0
 40
0.3750000000000003
100
AcDbArc
 50
188.0229869069
 51
261.1501169016
  0
ARC
  5
200
330
1F
100
AcDbEntity
  8
0
  6
Continuous
 62
     7
370
    30
100
AcDbCircle
 10
7.5875576972
 20
4.6208942334
 30
0.0
 40
0.2679999999999998
100
AcDbArc
 50
296.7854683781
 51
0.0
  0
ARC
  5
201
330
1F
100
AcDbEntity
  8
0
  6
Continuous
 62
     7
370
    30
100
AcDbCircle
 10
7.9875576972
 20
4.0638942334
 30
0.0
 40
0.0320000000000004
100
AcDbArc
 50
261.1501169016
 51
0.0
  0
LINE
  5
202
330
1F
100
AcDbEntity
  8
0
  6
Continuous
 62
     7
370
    30
100
AcDbLine
 10
8.0195578067
 20
4.1938941983
 30
0.0
 11
8.0195578067
 21
4.0638942534
 31
0.0
  0
ARC
  5
203
330
1F
100
AcDbEntity
  8
0
  6
Continuous
 62
     7
370
    30
100
AcDbCircle
 10
7.9875576972
 20
4.0638942334
 30
0.0
 40
0.0500000000000002
100
AcDbArc
 50
261.1501169016
 51
0.0
  0
ARC
  5
204
330
1F
100
AcDbEntity
  8
0
  6
Continuous
 62
     7
370
    30
100
AcDbCircle
 10
7.7286115054
 20
4.3414790885
 30
0.0
 40
0.0630000000000005
100
AcDbArc
 50
116.7854683781
 51
188.0229869069
  0
ARC
  5
205
330
1F
100
AcDbEntity
  8
0
  6
Continuous
 62
     7
370
    30
100
AcDbCircle
 10
7.5875576972
 20
4.6208942334
 30
0.0
 40
0.25
100
AcDbArc
 50
296.7854683781
 51
0.0
  0
LINE
  5
206
330
1F
100
AcDbEntity
  8
0
  6
Continuous
 62
     7
370
    30
100
AcDbLine
 10
7.8375577225
 20
4.6208942323
 30
0.0
 11
7.8375577225
 21
4.7387148245
 31
0.0
  0
LINE
  5
207
330
1F
100
AcDbEntity
  8
0
  6
Continuous
 62
     7
370
    30
100
AcDbLine
 10
7.820285722
 20
4.8733487134
 30
0.0
 11
7.8141293132
 21
4.8902631767
 31
0.0
  0
ARC
  5
208
330
1F
100
AcDbEntity
  8
0
  6
Continuous
 62
     7
370
    30
100
AcDbCircle
 10
7.8375576972
 20
4.8258942334
 30
0.0
 40
0.0685000000000004
100
AcDbArc
 50
299.8355602232
 51
110.0
  0
LINE
  5
209
330
1F
100
AcDbEntity
  8
0
  6
Continuous
 62
     7
370
    30
100
AcDbLine
 10
7.8555577679
 20
4.6208942323
 30
0.0
 11
7.8555577679
 21
4.7387148245
 31
0.0
  0
ARC
  5
20A
330
1F
100
AcDbEntity
  8
0
  6
Continuous
 62
     7
370
    30
100
AcDbCircle
 10
8.0375576972
 20
4.3850250479
 30
0.0
 40
0.3570000000000005
100
AcDbArc
 50
188.0229869069
 51
261.1501169016
  0
ARC
  5
20B
330
1F
100
AcDbEntity
  8
0
  6
Continuous
 62
     7
370
    30
100
AcDbCircle
 10
7.8875576972
 20
4.7387148207
 30
0.0
 40
0.0499999999999998
100
AcDbArc
 50
119.8355602232
 51
180.0
  0
LINE
  5
20C
330
1F
100
AcDbEntity
  8
0
  6
Continuous
 62
     7
370
    30
100
AcDbLine
 10
4.7708297429
 20
4.8733487134
 30
0.0
 11
4.7769860785
 21
4.8902631767
 31
0.0
  0
ARC
  5
20D
330
1F
100
AcDbEntity
  8
0
  6
Continuous
 62
     7
370
    30
100
AcDbCircle
 10
4.7535576972
 20
4.8258942334
 30
0.0
 40
0.0505000000000004
100
AcDbArc
 50
70.0
 51
240.1644397768
  0
ARC
  5
20E
330
1F
100
AcDbEntity
  8
0
  6
Continuous
 62
     7
370
    30
100
AcDbCircle
 10
4.7035576972
 20
4.7387148207
 30
0.0
 40
0.0500000000000007
100
AcDbArc
 50
0.0
 51
60.1644397768
  0
LINE
  5
20F
330
1F
100
AcDbEntity
  8
0
  6
Continuous
 62
     7
370
    30
100
AcDbLine
 10
4.7535576691
 20
4.6208942323
 30
0.0
 11
4.7535576691
 21
4.7387148245
 31
0.0
  0
ARC
  5
210
330
1F
100
AcDbEntity
  8
0
  6
Continuous
 62
     7
370
    30
100
AcDbCircle
 10
5.0035576972
 20
4.6208942334
 30
0.0
 40
0.2500000000000004
100
AcDbArc
 50
180.0
 51
243.2145316219
  0
ARC
  5
211
330
1F
100
AcDbEntity
  8
0
  6
Continuous
 62
     7
370
    30
100
AcDbCircle
 10
4.862503889
 20
4.3414790885
 30
0.0
 40
0.0629999999999997
100
AcDbArc
 50
351.9770130931
 51
63.2145316219
  0
ARC
  5
212
330
1F
100
AcDbEntity
  8
0
  6
Continuous
 62
     7
370
    30
100
AcDbCircle
 10
4.5535576972
 20
4.3850250479
 30
0.0
 40
0.3749999999999996
100
AcDbArc
 50
278.8498830984
 51
351.9770130931
  0
ARC
  5
213
330
1F
100
AcDbEntity
  8
0
  6
Continuous
 62
     7
370
    30
100
AcDbCircle
 10
4.6035576972
 20
4.0638942334
 30
0.0
 40
0.0499999999999998
100
AcDbArc
 50
180.0
 51
278.8498830984
  0
LINE
  5
214
330
1F
100
AcDbEntity
  8
0
  6
Continuous
 62
     7
370
    30
100
AcDbLine
 10
4.5535576862
 20
4.1938941983
 30
0.0
 11
4.5535576862
 21
4.0638942534
 31
0.0
  0
LINE
  5
215
330
1F
100
AcDbEntity
  8
0
  6
Continuous
 62
     7
370
    30
100
AcDbLine
 10
4.5715577316
 20
4.1938941983
 30
0.0
 11
4.5535576862
 21
4.1938941983
 31
0.0
  0
LINE
  5
216
330
1F
100
AcDbEntity
  8
0
  6
Continuous
 62
     7
370
    30
100
AcDbLine
 10
4.5715577316
 20
4.1938941983
 30
0.0
 11
4.5715577316
 21
4.0638942534
 31
0.0
  0
ARC
  5
217
330
1F
100
AcDbEntity
  8
0
  6
Continuous
 62
     7
370
    30
100
AcDbCircle
 10
4.6035576972
 20
4.0638942334
 30
0.0
 40
0.032
100
AcDbArc
 50
180.0
 51
278.8498830984
  0
ARC
  5
218
330
1F
100
AcDbEntity
  8
0
  6
Continuous
 62
     7
370
    30
100
AcDbCircle
 10
4.5535576972
 20
4.3850250479
 30
0.0
 40
0.3569999999999998
100
AcDbArc
 50
278.8498830984
 51
351.9770130931
  0
ARC
  5
219
330
1F
100
AcDbEntity
  8
0
  6
Continuous
 62
     7
370
    30
100
AcDbCircle
 10
4.862503889
 20
4.3414790885
 30
0.0
 40
0.0450000000000003
100
AcDbArc
 50
351.9770130931
 51
63.2145316219
  0
ARC
  5
21A
330
1F
100
AcDbEntity
  8
0
  6
Continuous
 62
     7
370
    30
100
AcDbCircle
 10
5.0035576972
 20
4.6208942334
 30
0.0
 40
0.2680000000000007
100
AcDbArc
 50
180.0
 51
243.2145316219
  0
LINE
  5
21B
330
1F
100
AcDbEntity
  8
0
  6
Continuous
 62
     7
370
    30
100
AcDbLine
 10
4.7355576971
 20
4.6208942323
 30
0.0
 11
4.7355576971
 21
4.7387148245
 31
0.0
  0
ARC
  5
21C
330
1F
100
AcDbEntity
  8
0
  6
Continuous
 62
     7
370
    30
100
AcDbCircle
 10
4.7035576972
 20
4.7387148207
 30
0.0
 40
0.032
100
AcDbArc
 50
0.0
 51
60.1644397768
  0
ARC
  5
21D
330
1F
100
AcDbEntity
  8
0
  6
Continuous
 62
     7
370
    30
100
AcDbCircle
 10
4.7535576972
 20
4.8258942334
 30
0.0
 40
0.0685000000000001
100
AcDbArc
 50
70.0
 51
240.1644397768
  0
ARC
  5
21E
330
1F
100
AcDbEntity
  8
0
  6
Continuous
 62
     7
370
    30
100
AcDbCircle
 10
2.4786115054
 20
4.3414790885
 30
0.0
 40
0.0450000000000003
100
AcDbArc
 50
116.7854683781
 51
188.0229869069
  0
ARC
  5
21F
330
1F
100
AcDbEntity
  8
0
  6
Continuous
 62
     7
370
    30
100
AcDbCircle
 10
2.5875576972
 20
4.8258942334
 30
0.0
 40
0.0505000000000004
100
AcDbArc
 50
299.8355602232
 51
110.0
  0
ARC
  5
220
330
1F
100
AcDbEntity
  8
0
  6
Continuous
 62
     7
370
    30
100
AcDbCircle
 10
2.7375576972
 20
4.0638942334
 30
0.0
 40
0.0320000000000004
100
AcDbArc
 50
261.1501169016
 51
0.0
  0
ARC
  5
221
330
1F
100
AcDbEntity
  8
0
  6
Continuous
 62
     7
370
    30
100
AcDbCircle
 10
2.7375576972
 20
4.0638942334
 30
0.0
 40
0.0500000000000003
100
AcDbArc
 50
261.1501169016
 51
0.0
  0
LINE
  5
222
330
1F
100
AcDbEntity
  8
0
  6
Continuous
 62
     7
370
    30
100
AcDbLine
 10
2.587557731
 20
4.6208942323
 30
0.0
 11
2.587557731
 21
4.7387148245
 31
0.0
  0
LINE
  5
223
330
1F
100
AcDbEntity
  8
0
  6
Continuous
 62
     7
370
    30
100
AcDbLine
 10
2.6055576297
 20
4.6208942323
 30
0.0
 11
2.6055576297
 21
4.7387148245
 31
0.0
  0
ARC
  5
224
330
1F
100
AcDbEntity
  8
0
  6
Continuous
 62
     7
370
    30
100
AcDbCircle
 10
2.6375576972
 20
4.7387148207
 30
0.0
 40
0.0319999999999996
100
AcDbArc
 50
119.8355602232
 51
180.0
  0
ARC
  5
225
330
1F
100
AcDbEntity
  8
0
  6
Continuous
 62
     7
370
    30
100
AcDbCircle
 10
2.3375576972
 20
4.6208942334
 30
0.0
 40
0.2679999999999998
100
AcDbArc
 50
296.7854683781
 51
0.0
  0
ARC
  5
226
330
1F
100
AcDbEntity
  8
0
  6
Continuous
 62
     7
370
    30
100
AcDbCircle
 10
2.7875576972
 20
4.3850250479
 30
0.0
 40
0.3570000000000007
100
AcDbArc
 50
188.0229869069
 51
261.1501169016
  0
LINE
  5
227
330
1F
100
AcDbEntity
  8
0
  6
Continuous
 62
     7
370
    30
100
AcDbLine
 10
2.7875577139
 20
4.1938941983
 30
0.0
 11
2.7875577139
 21
4.0638942534
 31
0.0
  0
ARC
  5
228
330
1F
100
AcDbEntity
  8
0
  6
Continuous
 62
     7
370
    30
100
AcDbCircle
 10
2.6375576972
 20
4.7387148207
 30
0.0
 40
0.0499999999999998
100
AcDbArc
 50
119.8355602232
 51
180.0
  0
ARC
  5
229
330
1F
100
AcDbEntity
  8
0
  6
Continuous
 62
     7
370
    30
100
AcDbCircle
 10
2.5875576972
 20
4.8258942334
 30
0.0
 40
0.0685000000000004
100
AcDbArc
 50
299.8355602232
 51
110.0
  0
ARC
  5
22A
330
1F
100
AcDbEntity
  8
0
  6
Continuous
 62
     7
370
    30
100
AcDbCircle
 10
2.3375576972
 20
4.6208942334
 30
0.0
 40
0.2499999999999996
100
AcDbArc
 50
296.7854683781
 51
0.0
  0
ARC
  5
22B
330
1F
100
AcDbEntity
  8
0
  6
Continuous
 62
     7
370
    30
100
AcDbCircle
 10
2.7875576972
 20
4.3850250479
 30
0.0
 40
0.3750000000000006
100
AcDbArc
 50
188.0229869069
 51
261.1501169016
  0
LINE
  5
22C
330
1F
100
AcDbEntity
  8
0
  6
Continuous
 62
     7
370
    30
100
AcDbLine
 10
2.5702855838
 20
4.8733487134
 30
0.0
 11
2.5641291749
 21
4.8902631767
 31
0.0
  0
ARC
  5
22D
330
1F
100
AcDbEntity
  8
0
  6
Continuous
 62
     7
370
    30
100
AcDbCircle
 10
2.4786115054
 20
4.3414790885
 30
0.0
 40
0.0630000000000003
100
AcDbArc
 50
116.7854683781
 51
188.0229869069
  0
LINE
  5
22E
330
1F
100
AcDbEntity
  8
0
  6
Continuous
 62
     7
370
    30
100
AcDbLine
 10
2.7695578151
 20
4.1938941983
 30
0.0
 11
2.7695578151
 21
4.0638942534
 31
0.0
  0
LINE
  5
22F
330
1F
100
AcDbEntity
  8
0
  6
Continuous
 62
     7
370
    30
100
AcDbLine
 10
2.7695578151
 20
4.1938941983
 30
0.0
 11
2.7875577139
 21
4.1938941983
 31
0.0
  0
LINE
  5
230
330
1F
100
AcDbEntity
  8
0
  6
Continuous
 62
     7
370
    30
100
AcDbLine
 10
6.5208297401
 20
4.8733487134
 30
0.0
 11
6.5269860757
 21
4.8902631767
 31
0.0
  0
ARC
  5
231
330
1F
100
AcDbEntity
  8
0
  6
Continuous
 62
     7
370
    30
100
AcDbCircle
 10
6.5035576972
 20
4.8258942334
 30
0.0
 40
0.0505000000000004
100
AcDbArc
 50
70.0
 51
240.1644397768
  0
ARC
  5
232
330
1F
100
AcDbEntity
  8
0
  6
Continuous
 62
     7
370
    30
100
AcDbCircle
 10
6.4535576972
 20
4.7387148207
 30
0.0
 40
0.0499999999999998
100
AcDbArc
 50
0.0
 51
60.1644397768
  0
LINE
  5
233
330
1F
100
AcDbEntity
  8
0
  6
Continuous
 62
     7
370
    30
100
AcDbLine
 10
6.5035576663
 20
4.6208942323
 30
0.0
 11
6.5035576663
 21
4.7387148245
 31
0.0
  0
ARC
  5
234
330
1F
100
AcDbEntity
  8
0
  6
Continuous
 62
     7
370
    30
100
AcDbCircle
 10
6.7535576972
 20
4.6208942334
 30
0.0
 40
0.25
100
AcDbArc
 50
180.0
 51
243.2145316219
  0
ARC
  5
235
330
1F
100
AcDbEntity
  8
0
  6
Continuous
 62
     7
370
    30
100
AcDbCircle
 10
6.612503889
 20
4.3414790885
 30
0.0
 40
0.0630000000000006
100
AcDbArc
 50
351.9770130931
 51
63.2145316219
  0
ARC
  5
236
330
1F
100
AcDbEntity
  8
0
  6
Continuous
 62
     7
370
    30
100
AcDbCircle
 10
6.3035576972
 20
4.3850250479
 30
0.0
 40
0.3750000000000001
100
AcDbArc
 50
278.8498830984
 51
351.9770130931
  0
ARC
  5
237
330
1F
100
AcDbEntity
  8
0
  6
Continuous
 62
     7
370
    30
100
AcDbCircle
 10
6.3535576972
 20
4.0638942334
 30
0.0
 40
0.0499999999999995
100
AcDbArc
 50
180.0
 51
278.8498830984
  0
LINE
  5
238
330
1F
100
AcDbEntity
  8
0
  6
Continuous
 62
     7
370
    30
100
AcDbLine
 10
6.3035576834
 20
4.1938941983
 30
0.0
 11
6.3035576834
 21
4.0638942534
 31
0.0
  0
LINE
  5
239
330
1F
100
AcDbEntity
  8
0
  6
Continuous
 62
     7
370
    30
100
AcDbLine
 10
6.3215577288
 20
4.1938941983
 30
0.0
 11
6.3035576834
 21
4.1938941983
 31
0.0
  0
LINE
  5
23A
330
1F
100
AcDbEntity
  8
0
  6
Continuous
 62
     7
370
    30
100
AcDbLine
 10
6.3215577288
 20
4.1938941983
 30
0.0
 11
6.3215577288
 21
4.0638942534
 31
0.0
  0
ARC
  5
23B
330
1F
100
AcDbEntity
  8
0
  6
Continuous
 62
     7
370
    30
100
AcDbCircle
 10
6.3535576972
 20
4.0638942334
 30
0.0
 40
0.032
100
AcDbArc
 50
180.0
 51
278.8498830984
  0
ARC
  5
23C
330
1F
100
AcDbEntity
  8
0
  6
Continuous
 62
     7
370
    30
100
AcDbCircle
 10
6.3035576972
 20
4.3850250479
 30
0.0
 40
0.3569999999999999
100
AcDbArc
 50
278.8498830984
 51
351.9770130931
  0
ARC
  5
23D
330
1F
100
AcDbEntity
  8
0
  6
Continuous
 62
     7
370
    30
100
AcDbCircle
 10
6.612503889
 20
4.3414790885
 30
0.0
 40
0.0450000000000003
100
AcDbArc
 50
351.9770130931
 51
63.2145316219
  0
ARC
  5
23E
330
1F
100
AcDbEntity
  8
0
  6
Continuous
 62
     7
370
    30
100
AcDbCircle
 10
6.7535576972
 20
4.6208942334
 30
0.0
 40
0.2679999999999996
100
AcDbArc
 50
180.0
 51
243.2145316219
  0
LINE
  5
23F
330
1F
100
AcDbEntity
  8
0
  6
Continuous
 62
     7
370
    30
100
AcDbLine
 10
6.4855576943
 20
4.6208942323
 30
0.0
 11
6.4855576943
 21
4.7387148245
 31
0.0
  0
ARC
  5
240
330
1F
100
AcDbEntity
  8
0
  6
Continuous
 62
     7
370
    30
100
AcDbCircle
 10
6.4535576972
 20
4.7387148207
 30
0.0
 40
0.0320000000000009
100
AcDbArc
 50
0.0
 51
60.1644397768
  0
ARC
  5
241
330
1F
100
AcDbEntity
  8
0
  6
Continuous
 62
     7
370
    30
100
AcDbCircle
 10
6.5035576972
 20
4.8258942334
 30
0.0
 40
0.0685000000000007
100
AcDbArc
 50
70.0
 51
240.1644397768
  0
ARC
  5
242
330
1F
100
AcDbEntity
  8
0
  6
Continuous
 62
     7
370
    30
100
AcDbCircle
 10
6.1375576972
 20
4.7387148207
 30
0.0
 40
0.032
100
AcDbArc
 50
119.8355602232
 51
180.0
  0
LINE
  5
243
330
1F
100
AcDbEntity
  8
0
  6
Continuous
 62
     7
370
    30
100
AcDbLine
 10
6.1055576974
 20
4.6208942323
 30
0.0
 11
6.1055576974
 21
4.7387148245
 31
0.0
  0
ARC
  5
244
330
1F
100
AcDbEntity
  8
0
  6
Continuous
 62
     7
370
    30
100
AcDbCircle
 10
6.2875576972
 20
4.3850250479
 30
0.0
 40
0.3570000000000008
100
AcDbArc
 50
188.0229869069
 51
261.1501169016
  0
LINE
  5
245
330
1F
100
AcDbEntity
  8
0
  6
Continuous
 62
     7
370
    30
100
AcDbLine
 10
6.2695576628
 20
4.1938941983
 30
0.0
 11
6.2695576628
 21
4.0638942534
 31
0.0
  0
LINE
  5
246
330
1F
100
AcDbEntity
  8
0
  6
Continuous
 62
     7
370
    30
100
AcDbLine
 10
6.2695576628
 20
4.1938941983
 30
0.0
 11
6.2875577082
 21
4.1938941983
 31
0.0
  0
LINE
  5
247
330
1F
100
AcDbEntity
  8
0
  6
Continuous
 62
     7
370
    30
100
AcDbLine
 10
6.2875577082
 20
4.1938941983
 30
0.0
 11
6.2875577082
 21
4.0638942534
 31
0.0
  0
ARC
  5
248
330
1F
100
AcDbEntity
  8
0
  6
Continuous
 62
     7
370
    30
100
AcDbCircle
 10
6.2375576972
 20
4.0638942334
 30
0.0
 40
0.0500000000000002
100
AcDbArc
 50
261.1501169016
 51
0.0
  0
ARC
  5
249
330
1F
100
AcDbEntity
  8
0
  6
Continuous
 62
     7
370
    30
100
AcDbCircle
 10
6.2875576972
 20
4.3850250479
 30
0.0
 40
0.3750000000000005
100
AcDbArc
 50
188.0229869069
 51
261.1501169016
  0
ARC
  5
24A
330
1F
100
AcDbEntity
  8
0
  6
Continuous
 62
     7
370
    30
100
AcDbCircle
 10
5.9786115054
 20
4.3414790885
 30
0.0
 40
0.0630000000000005
100
AcDbArc
 50
116.7854683781
 51
188.0229869069
  0
ARC
  5
24B
330
1F
100
AcDbEntity
  8
0
  6
Continuous
 62
     7
370
    30
100
AcDbCircle
 10
5.8375576972
 20
4.6208942334
 30
0.0
 40
0.2499999999999993
100
AcDbArc
 50
296.7854683781
 51
0.0
  0
LINE
  5
24C
330
1F
100
AcDbEntity
  8
0
  6
Continuous
 62
     7
370
    30
100
AcDbLine
 10
6.0875577253
 20
4.6208942323
 30
0.0
 11
6.0875577253
 21
4.7387148245
 31
0.0
  0
ARC
  5
24D
330
1F
100
AcDbEntity
  8
0
  6
Continuous
 62
     7
370
    30
100
AcDbCircle
 10
6.1375576972
 20
4.7387148207
 30
0.0
 40
0.0499999999999998
100
AcDbArc
 50
119.8355602232
 51
180.0
  0
ARC
  5
24E
330
1F
100
AcDbEntity
  8
0
  6
Continuous
 62
     7
370
    30
100
AcDbCircle
 10
6.0875576972
 20
4.8258942334
 30
0.0
 40
0.0505000000000004
100
AcDbArc
 50
299.8355602232
 51
110.0
  0
ARC
  5
24F
330
1F
100
AcDbEntity
  8
0
  6
Continuous
 62
     7
370
    30
100
AcDbCircle
 10
5.8375576972
 20
4.6208942334
 30
0.0
 40
0.2679999999999989
100
AcDbArc
 50
296.7854683781
 51
0.0
  0
ARC
  5
250
330
1F
100
AcDbEntity
  8
0
  6
Continuous
 62
     7
370
    30
100
AcDbCircle
 10
6.2375576972
 20
4.0638942334
 30
0.0
 40
0.0320000000000005
100
AcDbArc
 50
261.1501169016
 51
0.0
  0
ARC
  5
251
330
1F
100
AcDbEntity
  8
0
  6
Continuous
 62
     7
370
    30
100
AcDbCircle
 10
5.9786115054
 20
4.3414790885
 30
0.0
 40
0.0450000000000007
100
AcDbArc
 50
116.7854683781
 51
188.0229869069
  0
LINE
  5
252
330
1F
100
AcDbEntity
  8
0
  6
Continuous
 62
     7
370
    30
100
AcDbLine
 10
6.0702856515
 20
4.8733487134
 30
0.0
 11
6.064129316
 21
4.8902631767
 31
0.0
  0
ARC
  5
253
330
1F
100
AcDbEntity
  8
0
  6
Continuous
 62
     7
370
    30
100
AcDbCircle
 10
6.0875576972
 20
4.8258942334
 30
0.0
 40
0.0685000000000004
100
AcDbArc
 50
299.8355602232
 51
110.0
  0
LINE
  5
254
330
1F
100
AcDbEntity
  8
0
  6
Continuous
 62
     7
370
    30
100
AcDbLine
 10
3.0208296724
 20
4.8733487134
 30
0.0
 11
3.0269860813
 21
4.8902631767
 31
0.0
  0
ARC
  5
255
330
1F
100
AcDbEntity
  8
0
  6
Continuous
 62
     7
370
    30
100
AcDbCircle
 10
2.9535576972
 20
4.7387148207
 30
0.0
 40
0.0500000000000003
100
AcDbArc
 50
0.0
 51
60.1644397768
  0
LINE
  5
256
330
1F
100
AcDbEntity
  8
0
  6
Continuous
 62
     7
370
    30
100
AcDbLine
 10
3.003557672
 20
4.6208942323
 30
0.0
 11
3.003557672
 21
4.7387148245
 31
0.0
  0
ARC
  5
257
330
1F
100
AcDbEntity
  8
0
  6
Continuous
 62
     7
370
    30
100
AcDbCircle
 10
3.2535576972
 20
4.6208942334
 30
0.0
 40
0.2500000000000004
100
AcDbArc
 50
180.0
 51
243.2145316219
  0
ARC
  5
258
330
1F
100
AcDbEntity
  8
0
  6
Continuous
 62
     7
370
    30
100
AcDbCircle
 10
3.112503889
 20
4.3414790885
 30
0.0
 40
0.0629999999999997
100
AcDbArc
 50
351.9770130931
 51
63.2145316219
  0
ARC
  5
259
330
1F
100
AcDbEntity
  8
0
  6
Continuous
 62
     7
370
    30
100
AcDbCircle
 10
2.8035576972
 20
4.3850250479
 30
0.0
 40
0.3750000000000001
100
AcDbArc
 50
278.8498830984
 51
351.9770130931
  0
ARC
  5
25A
330
1F
100
AcDbEntity
  8
0
  6
Continuous
 62
     7
370
    30
100
AcDbCircle
 10
2.8535576972
 20
4.0638942334
 30
0.0
 40
0.0499999999999998
100
AcDbArc
 50
180.0
 51
278.8498830984
  0
LINE
  5
25B
330
1F
100
AcDbEntity
  8
0
  6
Continuous
 62
     7
370
    30
100
AcDbLine
 10
2.8215575878
 20
4.1938941983
 30
0.0
 11
2.803557689
 21
4.1938941983
 31
0.0
  0
ARC
  5
25C
330
1F
100
AcDbEntity
  8
0
  6
Continuous
 62
     7
370
    30
100
AcDbCircle
 10
2.8035576972
 20
4.3850250479
 30
0.0
 40
0.3569999999999999
100
AcDbArc
 50
278.8498830984
 51
351.9770130931
  0
ARC
  5
25D
330
1F
100
AcDbEntity
  8
0
  6
Continuous
 62
     7
370
    30
100
AcDbCircle
 10
3.0035576972
 20
4.8258942334
 30
0.0
 40
0.0685000000000002
100
AcDbArc
 50
70.0
 51
240.1644397768
  0
ARC
  5
25E
330
1F
100
AcDbEntity
  8
0
  6
Continuous
 62
     7
370
    30
100
AcDbCircle
 10
3.2535576972
 20
4.6208942334
 30
0.0
 40
0.2680000000000007
100
AcDbArc
 50
180.0
 51
243.2145316219
  0
ARC
  5
25F
330
1F
100
AcDbEntity
  8
0
  6
Continuous
 62
     7
370
    30
100
AcDbCircle
 10
3.112503889
 20
4.3414790885
 30
0.0
 40
0.0449999999999995
100
AcDbArc
 50
351.9770130931
 51
63.2145316219
  0
LINE
  5
260
330
1F
100
AcDbEntity
  8
0
  6
Continuous
 62
     7
370
    30
100
AcDbLine
 10
2.8215575878
 20
4.1938941983
 30
0.0
 11
2.8215575878
 21
4.0638942534
 31
0.0
  0
LINE
  5
261
330
1F
100
AcDbEntity
  8
0
  6
Continuous
 62
     7
370
    30
100
AcDbLine
 10
2.803557689
 20
4.1938941983
 30
0.0
 11
2.803557689
 21
4.0638942534
 31
0.0
  0
ARC
  5
262
330
1F
100
AcDbEntity
  8
0
  6
Continuous
 62
     7
370
    30
100
AcDbCircle
 10
3.0035576972
 20
4.8258942334
 30
0.0
 40
0.0505000000000004
100
AcDbArc
 50
70.0
 51
240.1644397768
  0
LINE
  5
263
330
1F
100
AcDbEntity
  8
0
  6
Continuous
 62
     7
370
    30
100
AcDbLine
 10
2.9855576266
 20
4.6208942323
 30
0.0
 11
2.9855576266
 21
4.7387148245
 31
0.0
  0
ARC
  5
264
330
1F
100
AcDbEntity
  8
0
  6
Continuous
 62
     7
370
    30
100
AcDbCircle
 10
2.8535576972
 20
4.0638942334
 30
0.0
 40
0.0319999999999996
100
AcDbArc
 50
180.0
 51
278.8498830984
  0
ARC
  5
265
330
1F
100
AcDbEntity
  8
0
  6
Continuous
 62
     7
370
    30
100
AcDbCircle
 10
2.9535576972
 20
4.7387148207
 30
0.0
 40
0.032
100
AcDbArc
 50
0.0
 51
60.1644397768
  0
ARC
  5
266
330
1F
100
AcDbEntity
  8
0
  6
Continuous
 62
     7
370
    30
100
AcDbCircle
 10
4.4875576972
 20
4.0638942334
 30
0.0
 40
0.0500000000000002
100
AcDbArc
 50
261.1501169016
 51
0.0
  0
ARC
  5
267
330
1F
100
AcDbEntity
  8
0
  6
Continuous
 62
     7
370
    30
100
AcDbCircle
 10
4.3875576972
 20
4.7387148207
 30
0.0
 40
0.0500000000000007
100
AcDbArc
 50
119.8355602232
 51
180.0
  0
ARC
  5
268
330
1F
100
AcDbEntity
  8
0
  6
Continuous
 62
     7
370
    30
100
AcDbCircle
 10
4.3375576972
 20
4.8258942334
 30
0.0
 40
0.0505000000000004
100
AcDbArc
 50
299.8355602232
 51
110.0
  0
LINE
  5
269
330
1F
100
AcDbEntity
  8
0
  6
Continuous
 62
     7
370
    30
100
AcDbLine
 10
4.3555577002
 20
4.6208942323
 30
0.0
 11
4.3555577002
 21
4.7387148245
 31
0.0
  0
ARC
  5
26A
330
1F
100
AcDbEntity
  8
0
  6
Continuous
 62
     7
370
    30
100
AcDbCircle
 10
4.2286115054
 20
4.3414790885
 30
0.0
 40
0.0450000000000003
100
AcDbArc
 50
116.7854683781
 51
188.0229869069
  0
ARC
  5
26B
330
1F
100
AcDbEntity
  8
0
  6
Continuous
 62
     7
370
    30
100
AcDbCircle
 10
4.4875576972
 20
4.0638942334
 30
0.0
 40
0.0320000000000005
100
AcDbArc
 50
261.1501169016
 51
0.0
  0
LINE
  5
26C
330
1F
100
AcDbEntity
  8
0
  6
Continuous
 62
     7
370
    30
100
AcDbLine
 10
4.5195576657
 20
4.1938941983
 30
0.0
 11
4.5375577111
 21
4.1938941983
 31
0.0
  0
ARC
  5
26D
330
1F
100
AcDbEntity
  8
0
  6
Continuous
 62
     7
370
    30
100
AcDbCircle
 10
4.2286115054
 20
4.3414790885
 30
0.0
 40
0.0629999999999999
100
AcDbArc
 50
116.7854683781
 51
188.0229869069
  0
LINE
  5
26E
330
1F
100
AcDbEntity
  8
0
  6
Continuous
 62
     7
370
    30
100
AcDbLine
 10
4.3375577281
 20
4.6208942323
 30
0.0
 11
4.3375577281
 21
4.7387148245
 31
0.0
  0
ARC
  5
26F
330
1F
100
AcDbEntity
  8
0
  6
Continuous
 62
     7
370
    30
100
AcDbCircle
 10
4.3875576972
 20
4.7387148207
 30
0.0
 40
0.032
100
AcDbArc
 50
119.8355602232
 51
180.0
  0
ARC
  5
270
330
1F
100
AcDbEntity
  8
0
  6
Continuous
 62
     7
370
    30
100
AcDbCircle
 10
4.0875576972
 20
4.6208942334
 30
0.0
 40
0.2680000000000007
100
AcDbArc
 50
296.7854683781
 51
0.0
  0
ARC
  5
271
330
1F
100
AcDbEntity
  8
0
  6
Continuous
 62
     7
370
    30
100
AcDbCircle
 10
4.5375576972
 20
4.3850250479
 30
0.0
 40
0.3570000000000008
100
AcDbArc
 50
188.0229869069
 51
261.1501169016
  0
ARC
  5
272
330
1F
100
AcDbEntity
  8
0
  6
Continuous
 62
     7
370
    30
100
AcDbCircle
 10
4.0875576972
 20
4.6208942334
 30
0.0
 40
0.25
100
AcDbArc
 50
296.7854683781
 51
0.0
  0
LINE
  5
273
330
1F
100
AcDbEntity
  8
0
  6
Continuous
 62
     7
370
    30
100
AcDbLine
 10
4.5195576657
 20
4.1938941983
 30
0.0
 11
4.5195576657
 21
4.0638942534
 31
0.0
  0
LINE
  5
274
330
1F
100
AcDbEntity
  8
0
  6
Continuous
 62
     7
370
    30
100
AcDbLine
 10
4.5375577111
 20
4.1938941983
 30
0.0
 11
4.5375577111
 21
4.0638942534
 31
0.0
  0
ARC
  5
275
330
1F
100
AcDbEntity
  8
0
  6
Continuous
 62
     7
370
    30
100
AcDbCircle
 10
4.5375576972
 20
4.3850250479
 30
0.0
 40
0.3750000000000005
100
AcDbArc
 50
188.0229869069
 51
261.1501169016
  0
ARC
  5
276
330
1F
100
AcDbEntity
  8
0
  6
Continuous
 62
     7
370
    30
100
AcDbCircle
 10
4.3375576972
 20
4.8258942334
 30
0.0
 40
0.0685000000000001
100
AcDbArc
 50
299.8355602232
 51
110.0
  0
LINE
  5
277
330
1F
100
AcDbEntity
  8
0
  6
Continuous
 62
     7
370
    30
100
AcDbLine
 10
4.3202856543
 20
4.8733487134
 30
0.0
 11
4.3141293188
 21
4.8902631767
 31
0.0
  0
ARC
  5
278
330
1F
100
AcDbEntity
  8
0
  6
Continuous
 62
     7
370
    30
100
AcDbCircle
 10
8.1035576972
 20
4.0638942334
 30
0.0
 40
0.0319999999999996
100
AcDbArc
 50
180.0
 51
278.8498830984
  0
ARC
  5
279
330
1F
100
AcDbEntity
  8
0
  6
Continuous
 62
     7
370
    30
100
AcDbCircle
 10
8.0535576972
 20
4.3850250479
 30
0.0
 40
0.3569999999999998
100
AcDbArc
 50
278.8498830984
 51
351.9770130931
  0
ARC
  5
27A
330
1F
100
AcDbEntity
  8
0
  6
Continuous
 62
     7
370
    30
100
AcDbCircle
 10
8.2535576972
 20
4.8258942334
 30
0.0
 40
0.0685000000000004
100
AcDbArc
 50
70.0
 51
240.1644397768
  0
ARC
  5
27B
330
1F
100
AcDbEntity
  8
0
  6
Continuous
 62
     7
370
    30
100
AcDbCircle
 10
8.362503889
 20
4.3414790885
 30
0.0
 40
0.0449999999999995
100
AcDbArc
 50
351.9770130931
 51
63.2145316219
  0
LINE
  5
27C
330
1F
100
AcDbEntity
  8
0
  6
Continuous
 62
     7
370
    30
100
AcDbLine
 10
8.0715575793
 20
4.1938941983
 30
0.0
 11
8.0535576806
 21
4.1938941983
 31
0.0
  0
ARC
  5
27D
330
1F
100
AcDbEntity
  8
0
  6
Continuous
 62
     7
370
    30
100
AcDbCircle
 10
8.1035576972
 20
4.0638942334
 30
0.0
 40
0.0499999999999996
100
AcDbArc
 50
180.0
 51
278.8498830984
  0
ARC
  5
27E
330
1F
100
AcDbEntity
  8
0
  6
Continuous
 62
     7
370
    30
100
AcDbCircle
 10
8.2035576972
 20
4.7387148207
 30
0.0
 40
0.032
100
AcDbArc
 50
0.0
 51
60.1644397768
  0
LINE
  5
27F
330
1F
100
AcDbEntity
  8
0
  6
Continuous
 62
     7
370
    30
100
AcDbLine
 10
8.2355577648
 20
4.6208942323
 30
0.0
 11
8.2355577648
 21
4.7387148245
 31
0.0
  0
ARC
  5
280
330
1F
100
AcDbEntity
  8
0
  6
Continuous
 62
     7
370
    30
100
AcDbCircle
 10
8.2535576972
 20
4.8258942334
 30
0.0
 40
0.0505000000000004
100
AcDbArc
 50
70.0
 51
240.1644397768
  0
ARC
  5
281
330
1F
100
AcDbEntity
  8
0
  6
Continuous
 62
     7
370
    30
100
AcDbCircle
 10
8.2035576972
 20
4.7387148207
 30
0.0
 40
0.0500000000000007
100
AcDbArc
 50
0.0
 51
60.1644397768
  0
LINE
  5
282
330
1F
100
AcDbEntity
  8
0
  6
Continuous
 62
     7
370
    30
100
AcDbLine
 10
8.2708298106
 20
4.8733487134
 30
0.0
 11
8.2769862195
 21
4.8902631767
 31
0.0
  0
ARC
  5
283
330
1F
100
AcDbEntity
  8
0
  6
Continuous
 62
     7
370
    30
100
AcDbCircle
 10
8.362503889
 20
4.3414790885
 30
0.0
 40
0.0629999999999997
100
AcDbArc
 50
351.9770130931
 51
63.2145316219
  0
ARC
  5
284
330
1F
100
AcDbEntity
  8
0
  6
Continuous
 62
     7
370
    30
100
AcDbCircle
 10
8.0535576972
 20
4.3850250479
 30
0.0
 40
0.3750000000000001
100
AcDbArc
 50
278.8498830984
 51
351.9770130931
  0
ARC
  5
285
330
1F
100
AcDbEntity
  8
0
  6
Continuous
 62
     7
370
    30
100
AcDbCircle
 10
8.5035576972
 20
4.6208942334
 30
0.0
 40
0.2679999999999996
100
AcDbArc
 50
180.0
 51
243.2145316219
  0
LINE
  5
286
330
1F
100
AcDbEntity
  8
0
  6
Continuous
 62
     7
370
    30
100
AcDbLine
 10
8.2535576635
 20
4.6208942323
 30
0.0
 11
8.2535576635
 21
4.7387148245
 31
0.0
  0
ARC
  5
287
330
1F
100
AcDbEntity
  8
0
  6
Continuous
 62
     7
370
    30
100
AcDbCircle
 10
8.5035576972
 20
4.6208942334
 30
0.0
 40
0.2499999999999996
100
AcDbArc
 50
180.0
 51
243.2145316219
  0
LINE
  5
288
330
1F
100
AcDbEntity
  8
0
  6
Continuous
 62
     7
370
    30
100
AcDbLine
 10
8.0535576806
 20
4.1938941983
 30
0.0
 11
8.0535576806
 21
4.0638942534
 31
0.0
  0
LINE
  5
289
330
1F
100
AcDbEntity
  8
0
  6
Continuous
 62
     7
370
    30
100
AcDbLine
 10
8.0715575793
 20
4.1938941983
 30
0.0
 11
8.0715575793
 21
4.0638942534
 31
0.0
  0
LINE
  5
28A
330
1F
100
AcDbEntity
  8
0
  6
Continuous
 62
     7
370
    30
100
AcDbLine
 10
7.9719879029
 20
4.9638942338
 30
0.0
 11
7.8575576915
 21
4.9638942338
 31
0.0
  0
LINE
  5
28B
330
1F
100
AcDbEntity
  8
0
  6
Continuous
 62
     7
370
    30
100
AcDbLine
 10
7.9516275781
 20
4.9521391738
 30
0.0
 11
7.9719879029
 21
4.9638942338
 31
0.0
  0
LINE
  5
28C
330
1F
100
AcDbEntity
  8
0
  6
Continuous
 62
     7
370
    30
100
AcDbLine
 10
7.9516275781
 20
4.9462826874
 30
0.0
 11
7.9516275781
 21
4.9521391738
 31
0.0
  0
LINE
  5
28D
330
1F
100
AcDbEntity
  8
0
  6
Continuous
 62
     7
370
    30
100
AcDbLine
 10
7.9719879029
 20
4.9345276279
 30
0.0
 11
7.9516275781
 21
4.9462826874
 31
0.0
  0
LINE
  5
28E
330
1F
100
AcDbEntity
  8
0
  6
Continuous
 62
     7
370
    30
100
AcDbLine
 10
7.9719879029
 20
4.9286708097
 30
0.0
 11
7.9719879029
 21
4.9345276279
 31
0.0
  0
LINE
  5
28F
330
1F
100
AcDbEntity
  8
0
  6
Continuous
 62
     7
370
    30
100
AcDbLine
 10
7.9516275781
 20
4.9169157497
 30
0.0
 11
7.9719879029
 21
4.9286708097
 31
0.0
  0
LINE
  5
290
330
1F
100
AcDbEntity
  8
0
  6
Continuous
 62
     7
370
    30
100
AcDbLine
 10
7.9516275781
 20
4.9110592661
 30
0.0
 11
7.9516275781
 21
4.9169157497
 31
0.0
  0
LINE
  5
291
330
1F
100
AcDbEntity
  8
0
  6
Continuous
 62
     7
370
    30
100
AcDbLine
 10
7.9719879029
 20
4.899304206
 30
0.0
 11
7.9516275781
 21
4.9110592661
 31
0.0
  0
LINE
  5
292
330
1F
100
AcDbEntity
  8
0
  6
Continuous
 62
     7
370
    30
100
AcDbLine
 10
7.9719879029
 20
4.8934473879
 30
0.0
 11
7.9719879029
 21
4.899304206
 31
0.0
  0
LINE
  5
293
330
1F
100
AcDbEntity
  8
0
  6
Continuous
 62
     7
370
    30
100
AcDbLine
 10
7.9516275781
 20
4.8816923278
 30
0.0
 11
7.9719879029
 21
4.8934473879
 31
0.0
  0
LINE
  5
294
330
1F
100
AcDbEntity
  8
0
  6
Continuous
 62
     7
370
    30
100
AcDbLine
 10
7.9516275781
 20
4.8758358396
 30
0.0
 11
7.9516275781
 21
4.8816923278
 31
0.0
  0
LINE
  5
295
330
1F
100
AcDbEntity
  8
0
  6
Continuous
 62
     7
370
    30
100
AcDbLine
 10
7.9719879029
 20
4.8640807796
 30
0.0
 11
7.9516275781
 21
4.8758358396
 31
0.0
  0
LINE
  5
296
330
1F
100
AcDbEntity
  8
0
  6
Continuous
 62
     7
370
    30
100
AcDbLine
 10
7.9719879029
 20
4.8582239614
 30
0.0
 11
7.9719879029
 21
4.8640807796
 31
0.0
  0
LINE
  5
297
330
1F
100
AcDbEntity
  8
0
  6
Continuous
 62
     7
370
    30
100
AcDbLine
 10
7.9516275781
 20
4.8464689014
 30
0.0
 11
7.9719879029
 21
4.8582239614
 31
0.0
  0
LINE
  5
298
330
1F
100
AcDbEntity
  8
0
  6
Continuous
 62
     7
370
    30
100
AcDbLine
 10
7.9516275781
 20
4.8406124132
 30
0.0
 11
7.9516275781
 21
4.8464689014
 31
0.0
  0
LINE
  5
299
330
1F
100
AcDbEntity
  8
0
  6
Continuous
 62
     7
370
    30
100
AcDbLine
 10
7.9719879029
 20
4.8288573532
 30
0.0
 11
7.9516275781
 21
4.8406124132
 31
0.0
  0
LINE
  5
29A
330
1F
100
AcDbEntity
  8
0
  6
Continuous
 62
     7
370
    30
100
AcDbLine
 10
7.9516275781
 20
4.8112454841
 30
0.0
 11
7.9719879029
 21
4.8230005442
 31
0.0
  0
LINE
  5
29B
330
1F
100
AcDbEntity
  8
0
  6
Continuous
 62
     7
370
    30
100
AcDbLine
 10
7.9516275781
 20
4.805388996
 30
0.0
 11
7.9516275781
 21
4.8112454841
 31
0.0
  0
LINE
  5
29C
330
1F
100
AcDbEntity
  8
0
  6
Continuous
 62
     7
370
    30
100
AcDbLine
 10
7.9719879029
 20
4.7936339268
 30
0.0
 11
7.9516275781
 21
4.805388996
 31
0.0
  0
LINE
  5
29D
330
1F
100
AcDbEntity
  8
0
  6
Continuous
 62
     7
370
    30
100
AcDbLine
 10
7.9719879029
 20
4.7877771177
 30
0.0
 11
7.9719879029
 21
4.7936339268
 31
0.0
  0
LINE
  5
29E
330
1F
100
AcDbEntity
  8
0
  6
Continuous
 62
     7
370
    30
100
AcDbLine
 10
7.9516275781
 20
4.7701655695
 30
0.0
 11
7.9516275781
 21
4.7760220485
 31
0.0
  0
LINE
  5
29F
330
1F
100
AcDbEntity
  8
0
  6
Continuous
 62
     7
370
    30
100
AcDbLine
 10
7.9719879029
 20
4.7525536913
 30
0.0
 11
7.9719879029
 21
4.7584105187
 31
0.0
  0
LINE
  5
2A0
330
1F
100
AcDbEntity
  8
0
  6
Continuous
 62
     7
370
    30
100
AcDbLine
 10
7.9516275781
 20
4.7349421431
 30
0.0
 11
7.9516275781
 21
4.7407986404
 31
0.0
  0
LINE
  5
2A1
330
1F
100
AcDbEntity
  8
0
  6
Continuous
 62
     7
370
    30
100
AcDbLine
 10
7.9719887829
 20
4.7231866156
 30
0.0
 11
7.9516275781
 21
4.7349421431
 31
0.0
  0
LINE
  5
2A2
330
1F
100
AcDbEntity
  8
0
  6
Continuous
 62
     7
370
    30
100
AcDbLine
 10
7.960613741
 20
4.7107541192
 30
0.0
 11
7.9719887829
 21
4.7173215017
 31
0.0
  0
ARC
  5
2A3
330
1F
100
AcDbEntity
  8
0
  6
Continuous
 62
     7
370
    30
100
AcDbCircle
 10
8.1445906322
 20
4.7139162556
 30
0.0
 40
0.0100000000000095
100
AcDbArc
 50
165.3098749059
 51
203.8403348298
  0
LINE
  5
2A4
330
1F
100
AcDbEntity
  8
0
  6
Continuous
 62
     7
370
    30
100
AcDbLine
 10
8.1395189009
 20
4.724965185
 30
0.0
 11
8.1395189009
 21
4.719108706
 31
0.0
  0
LINE
  5
2A5
330
1F
100
AcDbEntity
  8
0
  6
Continuous
 62
     7
370
    30
100
AcDbLine
 10
8.1191582828
 20
4.7778004897
 30
0.0
 11
8.1191582828
 21
4.7719436623
 31
0.0
  0
LINE
  5
2A6
330
1F
100
AcDbEntity
  8
0
  6
Continuous
 62
     7
370
    30
100
AcDbLine
 10
8.1395189009
 20
4.7954120379
 30
0.0
 11
8.1395189009
 21
4.7895555405
 31
0.0
  0
LINE
  5
2A7
330
1F
100
AcDbEntity
  8
0
  6
Continuous
 62
     7
370
    30
100
AcDbLine
 10
8.1191582828
 20
4.8130239069
 30
0.0
 11
8.1191582828
 21
4.8071670887
 31
0.0
  0
LINE
  5
2A8
330
1F
100
AcDbEntity
  8
0
  6
Continuous
 62
     7
370
    30
100
AcDbLine
 10
8.1395189009
 20
4.8306354551
 30
0.0
 11
8.1395189009
 21
4.824778967
 31
0.0
  0
LINE
  5
2A9
330
1F
100
AcDbEntity
  8
0
  6
Continuous
 62
     7
370
    30
100
AcDbLine
 10
8.1191582828
 20
4.8482473334
 30
0.0
 11
8.1191582828
 21
4.8423905152
 31
0.0
  0
LINE
  5
2AA
330
1F
100
AcDbEntity
  8
0
  6
Continuous
 62
     7
370
    30
100
AcDbLine
 10
8.1395189009
 20
4.8658588816
 30
0.0
 11
8.1395189009
 21
4.8600023934
 31
0.0
  0
LINE
  5
2AB
330
1F
100
AcDbEntity
  8
0
  6
Continuous
 62
     7
370
    30
100
AcDbLine
 10
8.1191582828
 20
4.8834707598
 30
0.0
 11
8.1191582828
 21
4.8776139416
 31
0.0
  0
LINE
  5
2AC
330
1F
100
AcDbEntity
  8
0
  6
Continuous
 62
     7
370
    30
100
AcDbLine
 10
8.2955578183
 20
4.9018942315
 30
0.0
 11
8.2955578183
 21
4.9003052541
 31
0.0
  0
ARC
  5
2AD
330
1F
100
AcDbEntity
  8
0
  6
Continuous
 62
     7
370
    30
100
AcDbCircle
 10
8.2535576972
 20
4.8258942334
 30
0.0
 40
0.0710000000000087
100
AcDbArc
 50
66.7301760415
 51
232.4184423812
  0
LINE
  5
2AE
330
1F
100
AcDbEntity
  8
0
  6
Continuous
 62
     7
370
    30
100
AcDbLine
 10
8.2180577003
 20
4.5888942453
 30
0.0
 11
8.2180577003
 21
4.7537780138
 31
0.0
  0
LINE
  5
2AF
330
1F
100
AcDbEntity
  8
0
  6
Continuous
 62
     7
370
    30
100
AcDbLine
 10
8.2180577003
 20
4.5888942453
 30
0.0
 11
7.8730576857
 21
4.5888942453
 31
0.0
  0
ARC
  5
2B0
330
1F
100
AcDbEntity
  8
0
  6
Continuous
 62
     7
370
    30
100
AcDbCircle
 10
7.8930576972
 20
4.7537780078
 30
0.0
 40
0.0199999999999991
100
AcDbArc
 50
127.5815576188
 51
180.0
  0
ARC
  5
2B1
330
1F
100
AcDbEntity
  8
0
  6
Continuous
 62
     7
370
    30
100
AcDbCircle
 10
7.8055576972
 20
4.9003052541
 30
0.0
 40
0.0099999999999989
100
AcDbArc
 50
180.0
 51
293.2698239585
  0
LINE
  5
2B2
330
1F
100
AcDbEntity
  8
0
  6
Continuous
 62
     7
370
    30
100
AcDbLine
 10
7.7955577144
 20
4.9018942315
 30
0.0
 11
7.7955577144
 21
4.9003052541
 31
0.0
  0
ARC
  5
2B3
330
1F
100
AcDbEntity
  8
0
  6
Continuous
 62
     7
370
    30
100
AcDbCircle
 10
7.8375576972
 20
4.8258942334
 30
0.0
 40
0.0710000000000108
100
AcDbArc
 50
307.5815576188
 51
113.2698239585
  0
LINE
  5
2B4
330
1F
100
AcDbEntity
  8
0
  6
Continuous
 62
     7
370
    30
100
AcDbLine
 10
7.8730576857
 20
4.7537780138
 30
0.0
 11
7.8730576857
 21
4.5888942453
 31
0.0
  0
LINE
  5
2B5
330
1F
100
AcDbEntity
  8
0
  6
Continuous
 62
     7
370
    30
100
AcDbLine
 10
8.1395189009
 20
4.7601886114
 30
0.0
 11
8.1395189009
 21
4.7543321324
 31
0.0
  0
LINE
  5
2B6
330
1F
100
AcDbEntity
  8
0
  6
Continuous
 62
     7
370
    30
100
AcDbLine
 10
8.1191582828
 20
4.7425770632
 30
0.0
 11
8.1191582828
 21
4.7367202542
 31
0.0
  0
LINE
  5
2B7
330
1F
100
AcDbEntity
  8
0
  6
Continuous
 62
     7
370
    30
100
AcDbLine
 10
7.9516275781
 20
4.7407986404
 30
0.0
 11
7.9719879029
 21
4.7525536913
 31
0.0
  0
LINE
  5
2B8
330
1F
100
AcDbEntity
  8
0
  6
Continuous
 62
     7
370
    30
100
AcDbLine
 10
7.9719879029
 20
4.7584105187
 30
0.0
 11
7.9516275781
 21
4.7701655695
 31
0.0
  0
LINE
  5
2B9
330
1F
100
AcDbEntity
  8
0
  6
Continuous
 62
     7
370
    30
100
AcDbLine
 10
7.9719879029
 20
4.8230005442
 30
0.0
 11
7.9719879029
 21
4.8288573532
 31
0.0
  0
LINE
  5
2BA
330
1F
100
AcDbEntity
  8
0
  6
Continuous
 62
     7
370
    30
100
AcDbLine
 10
8.2335578412
 20
4.9638942338
 30
0.0
 11
8.1364383498
 21
4.9638942338
 31
0.0
  0
LINE
  5
2BB
330
1F
100
AcDbEntity
  8
0
  6
Continuous
 62
     7
370
    30
100
AcDbLine
 10
8.1364383498
 20
4.9638942338
 30
0.0
 11
8.1191582828
 21
4.9539176046
 31
0.0
  0
LINE
  5
2BC
330
1F
100
AcDbEntity
  8
0
  6
Continuous
 62
     7
370
    30
100
AcDbLine
 10
8.1191582828
 20
4.9480607867
 30
0.0
 11
8.1395189009
 21
4.9363057276
 31
0.0
  0
LINE
  5
2BD
330
1F
100
AcDbEntity
  8
0
  6
Continuous
 62
     7
370
    30
100
AcDbLine
 10
8.1395189009
 20
4.9304492417
 30
0.0
 11
8.1191582828
 21
4.9186941816
 31
0.0
  0
LINE
  5
2BE
330
1F
100
AcDbEntity
  8
0
  6
Continuous
 62
     7
370
    30
100
AcDbLine
 10
8.1191582828
 20
4.9128373635
 30
0.0
 11
8.1395189009
 21
4.9010823034
 31
0.0
  0
LINE
  5
2BF
330
1F
100
AcDbEntity
  8
0
  6
Continuous
 62
     7
370
    30
100
AcDbLine
 10
8.1395189009
 20
4.8952258152
 30
0.0
 11
8.1191582828
 21
4.8834707598
 31
0.0
  0
LINE
  5
2C0
330
1F
100
AcDbEntity
  8
0
  6
Continuous
 62
     7
370
    30
100
AcDbLine
 10
8.1191582828
 20
4.8776139416
 30
0.0
 11
8.1395189009
 21
4.8658588816
 31
0.0
  0
LINE
  5
2C1
330
1F
100
AcDbEntity
  8
0
  6
Continuous
 62
     7
370
    30
100
AcDbLine
 10
8.1395189009
 20
4.8600023934
 30
0.0
 11
8.1191582828
 21
4.8482473334
 31
0.0
  0
LINE
  5
2C2
330
1F
100
AcDbEntity
  8
0
  6
Continuous
 62
     7
370
    30
100
AcDbLine
 10
8.1191582828
 20
4.8423905152
 30
0.0
 11
8.1395189009
 21
4.8306354551
 31
0.0
  0
LINE
  5
2C3
330
1F
100
AcDbEntity
  8
0
  6
Continuous
 62
     7
370
    30
100
AcDbLine
 10
8.1395189009
 20
4.824778967
 30
0.0
 11
8.1191582828
 21
4.8130239069
 31
0.0
  0
LINE
  5
2C4
330
1F
100
AcDbEntity
  8
0
  6
Continuous
 62
     7
370
    30
100
AcDbLine
 10
8.1191582828
 20
4.8071670887
 30
0.0
 11
8.1395189009
 21
4.7954120379
 31
0.0
  0
LINE
  5
2C5
330
1F
100
AcDbEntity
  8
0
  6
Continuous
 62
     7
370
    30
100
AcDbLine
 10
8.1395189009
 20
4.7895555405
 30
0.0
 11
8.1191582828
 21
4.7778004897
 31
0.0
  0
LINE
  5
2C6
330
1F
100
AcDbEntity
  8
0
  6
Continuous
 62
     7
370
    30
100
AcDbLine
 10
8.1191582828
 20
4.7719436623
 30
0.0
 11
8.1395189009
 21
4.7601886114
 31
0.0
  0
LINE
  5
2C7
330
1F
100
AcDbEntity
  8
0
  6
Continuous
 62
     7
370
    30
100
AcDbLine
 10
8.1395189009
 20
4.7543321324
 30
0.0
 11
8.1191582828
 21
4.7425770632
 31
0.0
  0
LINE
  5
2C8
330
1F
100
AcDbEntity
  8
0
  6
Continuous
 62
     7
370
    30
100
AcDbLine
 10
8.1191582828
 20
4.7367202542
 30
0.0
 11
8.1395189009
 21
4.724965185
 31
0.0
  0
LINE
  5
2C9
330
1F
100
AcDbEntity
  8
0
  6
Continuous
 62
     7
370
    30
100
AcDbLine
 10
8.1395189009
 20
4.719108706
 30
0.0
 11
8.1349174341
 21
4.7164521634
 31
0.0
  0
ARC
  5
2CA
330
1F
100
AcDbEntity
  8
0
  6
Continuous
 62
     7
370
    30
100
AcDbCircle
 10
8.1275576972
 20
4.6798942334
 30
0.0
 40
0.0310000000000006
100
AcDbArc
 50
270.0
 51
75.2623825484
  0
LINE
  5
2CB
330
1F
100
AcDbEntity
  8
0
  6
Continuous
 62
     7
370
    30
100
AcDbLine
 10
8.1275577857
 20
4.6488942255
 30
0.0
 11
7.9635576003
 21
4.6488942255
 31
0.0
  0
ARC
  5
2CC
330
1F
100
AcDbEntity
  8
0
  6
Continuous
 62
     7
370
    30
100
AcDbCircle
 10
7.9635576972
 20
4.6798942334
 30
0.0
 40
0.0310000000000006
100
AcDbArc
 50
95.4495226951
 51
270.0
  0
LINE
  5
2CD
330
1F
100
AcDbEntity
  8
0
  6
Continuous
 62
     7
370
    30
100
AcDbLine
 10
7.9719887829
 20
4.7173215017
 30
0.0
 11
7.9719887829
 21
4.7231866156
 31
0.0
  0
LINE
  5
2CE
330
1F
100
AcDbEntity
  8
0
  6
Continuous
 62
     7
370
    30
100
AcDbLine
 10
8.1191582828
 20
4.9539176046
 30
0.0
 11
8.1191582828
 21
4.9480607867
 31
0.0
  0
LINE
  5
2CF
330
1F
100
AcDbEntity
  8
0
  6
Continuous
 62
     7
370
    30
100
AcDbLine
 10
8.1395189009
 20
4.9363057276
 30
0.0
 11
8.1395189009
 21
4.9304492417
 31
0.0
  0
LINE
  5
2D0
330
1F
100
AcDbEntity
  8
0
  6
Continuous
 62
     7
370
    30
100
AcDbLine
 10
8.1191582828
 20
4.9186941816
 30
0.0
 11
8.1191582828
 21
4.9128373635
 31
0.0
  0
ARC
  5
2D1
330
1F
100
AcDbEntity
  8
0
  6
Continuous
 62
     7
370
    30
100
AcDbCircle
 10
8.2855576972
 20
4.9003052541
 30
0.0
 40
0.0099999999999901
100
AcDbArc
 50
246.7301760415
 51
0.0
  0
LINE
  5
2D2
330
1F
100
AcDbEntity
  8
0
  6
Continuous
 62
     7
370
    30
100
AcDbLine
 10
8.1395189009
 20
4.9010823034
 30
0.0
 11
8.1395189009
 21
4.8952258152
 31
0.0
  0
ARC
  5
2D3
330
1F
100
AcDbEntity
  8
0
  6
Continuous
 62
     7
370
    30
100
AcDbCircle
 10
8.2335576972
 20
4.9018942334
 30
0.0
 40
0.0620000000000012
100
AcDbArc
 50
0.0
 51
90.0
  0
LINE
  5
2D4
330
1F
100
AcDbEntity
  8
0
  6
Continuous
 62
     7
370
    30
100
AcDbLine
 10
7.9516275781
 20
4.7760220485
 30
0.0
 11
7.9719879029
 21
4.7877771177
 31
0.0
  0
ARC
  5
2D5
330
1F
100
AcDbEntity
  8
0
  6
Continuous
 62
     7
370
    30
100
AcDbCircle
 10
7.8575576972
 20
4.9018942334
 30
0.0
 40
0.0620000000000012
100
AcDbArc
 50
90.0
 51
180.0
  0
ARC
  5
2D6
330
1F
100
AcDbEntity
  8
0
  6
Continuous
 62
     7
370
    30
100
AcDbCircle
 10
8.1980576972
 20
4.7537780078
 30
0.0
 40
0.0200000000000004
100
AcDbArc
 50
0.0
 51
52.4184423812
  0
LINE
  5
2D7
330
1F
100
AcDbEntity
  8
0
  6
Continuous
 62
     7
370
    30
100
AcDbLine
 10
4.4719879085
 20
4.9638942338
 30
0.0
 11
4.3575576971
 21
4.9638942338
 31
0.0
  0
LINE
  5
2D8
330
1F
100
AcDbEntity
  8
0
  6
Continuous
 62
     7
370
    30
100
AcDbLine
 10
4.4516275104
 20
4.9521391738
 30
0.0
 11
4.4719879085
 21
4.9638942338
 31
0.0
  0
LINE
  5
2D9
330
1F
100
AcDbEntity
  8
0
  6
Continuous
 62
     7
370
    30
100
AcDbLine
 10
4.4516275104
 20
4.9462826874
 30
0.0
 11
4.4516275104
 21
4.9521391738
 31
0.0
  0
LINE
  5
2DA
330
1F
100
AcDbEntity
  8
0
  6
Continuous
 62
     7
370
    30
100
AcDbLine
 10
4.4719879085
 20
4.9345276279
 30
0.0
 11
4.4516275104
 21
4.9462826874
 31
0.0
  0
LINE
  5
2DB
330
1F
100
AcDbEntity
  8
0
  6
Continuous
 62
     7
370
    30
100
AcDbLine
 10
4.4719879085
 20
4.9286708097
 30
0.0
 11
4.4719879085
 21
4.9345276279
 31
0.0
  0
LINE
  5
2DC
330
1F
100
AcDbEntity
  8
0
  6
Continuous
 62
     7
370
    30
100
AcDbLine
 10
4.4516275104
 20
4.9169157497
 30
0.0
 11
4.4719879085
 21
4.9286708097
 31
0.0
  0
LINE
  5
2DD
330
1F
100
AcDbEntity
  8
0
  6
Continuous
 62
     7
370
    30
100
AcDbLine
 10
4.4516275104
 20
4.9110592661
 30
0.0
 11
4.4516275104
 21
4.9169157497
 31
0.0
  0
LINE
  5
2DE
330
1F
100
AcDbEntity
  8
0
  6
Continuous
 62
     7
370
    30
100
AcDbLine
 10
4.4719879085
 20
4.899304206
 30
0.0
 11
4.4516275104
 21
4.9110592661
 31
0.0
  0
LINE
  5
2DF
330
1F
100
AcDbEntity
  8
0
  6
Continuous
 62
     7
370
    30
100
AcDbLine
 10
4.4719879085
 20
4.8934473879
 30
0.0
 11
4.4719879085
 21
4.899304206
 31
0.0
  0
LINE
  5
2E0
330
1F
100
AcDbEntity
  8
0
  6
Continuous
 62
     7
370
    30
100
AcDbLine
 10
4.4516275104
 20
4.8816923278
 30
0.0
 11
4.4719879085
 21
4.8934473879
 31
0.0
  0
LINE
  5
2E1
330
1F
100
AcDbEntity
  8
0
  6
Continuous
 62
     7
370
    30
100
AcDbLine
 10
4.4516275104
 20
4.8758358396
 30
0.0
 11
4.4516275104
 21
4.8816923278
 31
0.0
  0
LINE
  5
2E2
330
1F
100
AcDbEntity
  8
0
  6
Continuous
 62
     7
370
    30
100
AcDbLine
 10
4.4719879085
 20
4.8640807796
 30
0.0
 11
4.4516275104
 21
4.8758358396
 31
0.0
  0
LINE
  5
2E3
330
1F
100
AcDbEntity
  8
0
  6
Continuous
 62
     7
370
    30
100
AcDbLine
 10
4.4719879085
 20
4.8582239614
 30
0.0
 11
4.4719879085
 21
4.8640807796
 31
0.0
  0
LINE
  5
2E4
330
1F
100
AcDbEntity
  8
0
  6
Continuous
 62
     7
370
    30
100
AcDbLine
 10
4.4516275104
 20
4.8464689014
 30
0.0
 11
4.4719879085
 21
4.8582239614
 31
0.0
  0
LINE
  5
2E5
330
1F
100
AcDbEntity
  8
0
  6
Continuous
 62
     7
370
    30
100
AcDbLine
 10
4.4516275104
 20
4.8406124132
 30
0.0
 11
4.4516275104
 21
4.8464689014
 31
0.0
  0
LINE
  5
2E6
330
1F
100
AcDbEntity
  8
0
  6
Continuous
 62
     7
370
    30
100
AcDbLine
 10
4.4719879085
 20
4.8288573532
 30
0.0
 11
4.4516275104
 21
4.8406124132
 31
0.0
  0
LINE
  5
2E7
330
1F
100
AcDbEntity
  8
0
  6
Continuous
 62
     7
370
    30
100
AcDbLine
 10
4.4719879085
 20
4.8230005442
 30
0.0
 11
4.4719879085
 21
4.8288573532
 31
0.0
  0
LINE
  5
2E8
330
1F
100
AcDbEntity
  8
0
  6
Continuous
 62
     7
370
    30
100
AcDbLine
 10
4.4516275104
 20
4.8112454841
 30
0.0
 11
4.4719879085
 21
4.8230005442
 31
0.0
  0
LINE
  5
2E9
330
1F
100
AcDbEntity
  8
0
  6
Continuous
 62
     7
370
    30
100
AcDbLine
 10
4.4516275104
 20
4.805388996
 30
0.0
 11
4.4516275104
 21
4.8112454841
 31
0.0
  0
LINE
  5
2EA
330
1F
100
AcDbEntity
  8
0
  6
Continuous
 62
     7
370
    30
100
AcDbLine
 10
4.4719879085
 20
4.7936339268
 30
0.0
 11
4.4516275104
 21
4.805388996
 31
0.0
  0
LINE
  5
2EB
330
1F
100
AcDbEntity
  8
0
  6
Continuous
 62
     7
370
    30
100
AcDbLine
 10
4.4719879085
 20
4.7877771177
 30
0.0
 11
4.4719879085
 21
4.7936339268
 31
0.0
  0
LINE
  5
2EC
330
1F
100
AcDbEntity
  8
0
  6
Continuous
 62
     7
370
    30
100
AcDbLine
 10
4.4516275104
 20
4.7760220485
 30
0.0
 11
4.4719879085
 21
4.7877771177
 31
0.0
  0
LINE
  5
2ED
330
1F
100
AcDbEntity
  8
0
  6
Continuous
 62
     7
370
    30
100
AcDbLine
 10
4.4516275104
 20
4.7701655695
 30
0.0
 11
4.4516275104
 21
4.7760220485
 31
0.0
  0
LINE
  5
2EE
330
1F
100
AcDbEntity
  8
0
  6
Continuous
 62
     7
370
    30
100
AcDbLine
 10
4.4719879085
 20
4.7584105187
 30
0.0
 11
4.4516275104
 21
4.7701655695
 31
0.0
  0
LINE
  5
2EF
330
1F
100
AcDbEntity
  8
0
  6
Continuous
 62
     7
370
    30
100
AcDbLine
 10
4.4719879085
 20
4.7525536913
 30
0.0
 11
4.4719879085
 21
4.7584105187
 31
0.0
  0
LINE
  5
2F0
330
1F
100
AcDbEntity
  8
0
  6
Continuous
 62
     7
370
    30
100
AcDbLine
 10
4.4516275104
 20
4.7407986404
 30
0.0
 11
4.4719879085
 21
4.7525536913
 31
0.0
  0
LINE
  5
2F1
330
1F
100
AcDbEntity
  8
0
  6
Continuous
 62
     7
370
    30
100
AcDbLine
 10
4.4516275104
 20
4.7349421431
 30
0.0
 11
4.4516275104
 21
4.7407986404
 31
0.0
  0
LINE
  5
2F2
330
1F
100
AcDbEntity
  8
0
  6
Continuous
 62
     7
370
    30
100
AcDbLine
 10
4.4719887152
 20
4.7231866156
 30
0.0
 11
4.4516275104
 21
4.7349421431
 31
0.0
  0
LINE
  5
2F3
330
1F
100
AcDbEntity
  8
0
  6
Continuous
 62
     7
370
    30
100
AcDbLine
 10
4.4719887152
 20
4.7173215017
 30
0.0
 11
4.4719887152
 21
4.7231866156
 31
0.0
  0
LINE
  5
2F4
330
1F
100
AcDbEntity
  8
0
  6
Continuous
 62
     7
370
    30
100
AcDbLine
 10
4.4606136733
 20
4.7107541192
 30
0.0
 11
4.4719887152
 21
4.7173215017
 31
0.0
  0
ARC
  5
2F5
330
1F
100
AcDbEntity
  8
0
  6
Continuous
 62
     7
370
    30
100
AcDbCircle
 10
4.4635576972
 20
4.6798942334
 30
0.0
 40
0.0310000000000006
100
AcDbArc
 50
95.4495226951
 51
270.0
  0
LINE
  5
2F6
330
1F
100
AcDbEntity
  8
0
  6
Continuous
 62
     7
370
    30
100
AcDbLine
 10
4.627557718
 20
4.6488942255
 30
0.0
 11
4.4635576792
 21
4.6488942255
 31
0.0
  0
ARC
  5
2F7
330
1F
100
AcDbEntity
  8
0
  6
Continuous
 62
     7
370
    30
100
AcDbCircle
 10
4.6445906322
 20
4.7139162556
 30
0.0
 40
0.0100000000000086
100
AcDbArc
 50
165.3098749059
 51
203.8403348298
  0
LINE
  5
2F8
330
1F
100
AcDbEntity
  8
0
  6
Continuous
 62
     7
370
    30
100
AcDbLine
 10
4.6395187599
 20
4.724965185
 30
0.0
 11
4.6395187599
 21
4.719108706
 31
0.0
  0
LINE
  5
2F9
330
1F
100
AcDbEntity
  8
0
  6
Continuous
 62
     7
370
    30
100
AcDbLine
 10
4.6191584351
 20
4.7425770632
 30
0.0
 11
4.6191584351
 21
4.7367202542
 31
0.0
  0
LINE
  5
2FA
330
1F
100
AcDbEntity
  8
0
  6
Continuous
 62
     7
370
    30
100
AcDbLine
 10
4.6395187599
 20
4.7543321324
 30
0.0
 11
4.6191584351
 21
4.7425770632
 31
0.0
  0
LINE
  5
2FB
330
1F
100
AcDbEntity
  8
0
  6
Continuous
 62
     7
370
    30
100
AcDbLine
 10
4.6395187599
 20
4.7601886114
 30
0.0
 11
4.6395187599
 21
4.7543321324
 31
0.0
  0
LINE
  5
2FC
330
1F
100
AcDbEntity
  8
0
  6
Continuous
 62
     7
370
    30
100
AcDbLine
 10
4.6191584351
 20
4.7778004897
 30
0.0
 11
4.6191584351
 21
4.7719436623
 31
0.0
  0
LINE
  5
2FD
330
1F
100
AcDbEntity
  8
0
  6
Continuous
 62
     7
370
    30
100
AcDbLine
 10
4.6395187599
 20
4.7954120379
 30
0.0
 11
4.6395187599
 21
4.7895555405
 31
0.0
  0
LINE
  5
2FE
330
1F
100
AcDbEntity
  8
0
  6
Continuous
 62
     7
370
    30
100
AcDbLine
 10
4.6191584351
 20
4.8071670887
 30
0.0
 11
4.6395187599
 21
4.7954120379
 31
0.0
  0
LINE
  5
2FF
330
1F
100
AcDbEntity
  8
0
  6
Continuous
 62
     7
370
    30
100
AcDbLine
 10
4.6191584351
 20
4.8130239069
 30
0.0
 11
4.6191584351
 21
4.8071670887
 31
0.0
  0
LINE
  5
300
330
1F
100
AcDbEntity
  8
0
  6
Continuous
 62
     7
370
    30
100
AcDbLine
 10
4.6395187599
 20
4.824778967
 30
0.0
 11
4.6191584351
 21
4.8130239069
 31
0.0
  0
LINE
  5
301
330
1F
100
AcDbEntity
  8
0
  6
Continuous
 62
     7
370
    30
100
AcDbLine
 10
4.6395187599
 20
4.8306354551
 30
0.0
 11
4.6395187599
 21
4.824778967
 31
0.0
  0
LINE
  5
302
330
1F
100
AcDbEntity
  8
0
  6
Continuous
 62
     7
370
    30
100
AcDbLine
 10
4.6191584351
 20
4.8423905152
 30
0.0
 11
4.6395187599
 21
4.8306354551
 31
0.0
  0
LINE
  5
303
330
1F
100
AcDbEntity
  8
0
  6
Continuous
 62
     7
370
    30
100
AcDbLine
 10
4.6191584351
 20
4.8482473334
 30
0.0
 11
4.6191584351
 21
4.8423905152
 31
0.0
  0
LINE
  5
304
330
1F
100
AcDbEntity
  8
0
  6
Continuous
 62
     7
370
    30
100
AcDbLine
 10
4.6395187599
 20
4.8600023934
 30
0.0
 11
4.6191584351
 21
4.8482473334
 31
0.0
  0
LINE
  5
305
330
1F
100
AcDbEntity
  8
0
  6
Continuous
 62
     7
370
    30
100
AcDbLine
 10
4.6395187599
 20
4.8658588816
 30
0.0
 11
4.6395187599
 21
4.8600023934
 31
0.0
  0
LINE
  5
306
330
1F
100
AcDbEntity
  8
0
  6
Continuous
 62
     7
370
    30
100
AcDbLine
 10
4.6191584351
 20
4.8776139416
 30
0.0
 11
4.6395187599
 21
4.8658588816
 31
0.0
  0
LINE
  5
307
330
1F
100
AcDbEntity
  8
0
  6
Continuous
 62
     7
370
    30
100
AcDbLine
 10
4.6191584351
 20
4.8834707598
 30
0.0
 11
4.6191584351
 21
4.8776139416
 31
0.0
  0
LINE
  5
308
330
1F
100
AcDbEntity
  8
0
  6
Continuous
 62
     7
370
    30
100
AcDbLine
 10
4.6395187599
 20
4.8952258152
 30
0.0
 11
4.6191584351
 21
4.8834707598
 31
0.0
  0
LINE
  5
309
330
1F
100
AcDbEntity
  8
0
  6
Continuous
 62
     7
370
    30
100
AcDbLine
 10
4.6395187599
 20
4.9010823034
 30
0.0
 11
4.6395187599
 21
4.8952258152
 31
0.0
  0
LINE
  5
30A
330
1F
100
AcDbEntity
  8
0
  6
Continuous
 62
     7
370
    30
100
AcDbLine
 10
4.6191584351
 20
4.9128373635
 30
0.0
 11
4.6395187599
 21
4.9010823034
 31
0.0
  0
LINE
  5
30B
330
1F
100
AcDbEntity
  8
0
  6
Continuous
 62
     7
370
    30
100
AcDbLine
 10
4.6191584351
 20
4.9186941816
 30
0.0
 11
4.6191584351
 21
4.9128373635
 31
0.0
  0
LINE
  5
30C
330
1F
100
AcDbEntity
  8
0
  6
Continuous
 62
     7
370
    30
100
AcDbLine
 10
4.6395187599
 20
4.9304492417
 30
0.0
 11
4.6191584351
 21
4.9186941816
 31
0.0
  0
LINE
  5
30D
330
1F
100
AcDbEntity
  8
0
  6
Continuous
 62
     7
370
    30
100
AcDbLine
 10
4.6395187599
 20
4.9363057276
 30
0.0
 11
4.6395187599
 21
4.9304492417
 31
0.0
  0
LINE
  5
30E
330
1F
100
AcDbEntity
  8
0
  6
Continuous
 62
     7
370
    30
100
AcDbLine
 10
4.6191584351
 20
4.9539176046
 30
0.0
 11
4.6191584351
 21
4.9480607867
 31
0.0
  0
LINE
  5
30F
330
1F
100
AcDbEntity
  8
0
  6
Continuous
 62
     7
370
    30
100
AcDbLine
 10
4.7955576773
 20
4.9018942315
 30
0.0
 11
4.7955576773
 21
4.9003052541
 31
0.0
  0
LINE
  5
310
330
1F
100
AcDbEntity
  8
0
  6
Continuous
 62
     7
370
    30
100
AcDbLine
 10
4.7180577059
 20
4.5888942453
 30
0.0
 11
4.3730576914
 21
4.5888942453
 31
0.0
  0
LINE
  5
311
330
1F
100
AcDbEntity
  8
0
  6
Continuous
 62
     7
370
    30
100
AcDbLine
 10
4.29555772
 20
4.9018942315
 30
0.0
 11
4.29555772
 21
4.9003052541
 31
0.0
  0
ARC
  5
312
330
1F
100
AcDbEntity
  8
0
  6
Continuous
 62
     7
370
    30
100
AcDbCircle
 10
4.3055576972
 20
4.9003052541
 30
0.0
 40
0.0099999999999998
100
AcDbArc
 50
180.0
 51
293.2698239585
  0
ARC
  5
313
330
1F
100
AcDbEntity
  8
0
  6
Continuous
 62
     7
370
    30
100
AcDbCircle
 10
4.3375576972
 20
4.8258942334
 30
0.0
 40
0.0710000000000112
100
AcDbArc
 50
307.5815576188
 51
113.2698239585
  0
ARC
  5
314
330
1F
100
AcDbEntity
  8
0
  6
Continuous
 62
     7
370
    30
100
AcDbCircle
 10
4.3930576972
 20
4.7537780078
 30
0.0
 40
0.0199999999999987
100
AcDbArc
 50
127.5815576187
 51
180.0
  0
LINE
  5
315
330
1F
100
AcDbEntity
  8
0
  6
Continuous
 62
     7
370
    30
100
AcDbLine
 10
4.3730576914
 20
4.7537780138
 30
0.0
 11
4.3730576914
 21
4.5888942453
 31
0.0
  0
LINE
  5
316
330
1F
100
AcDbEntity
  8
0
  6
Continuous
 62
     7
370
    30
100
AcDbLine
 10
4.7180577059
 20
4.5888942453
 30
0.0
 11
4.7180577059
 21
4.7537780138
 31
0.0
  0
ARC
  5
317
330
1F
100
AcDbEntity
  8
0
  6
Continuous
 62
     7
370
    30
100
AcDbCircle
 10
4.6980576972
 20
4.7537780078
 30
0.0
 40
0.0200000000000004
100
AcDbArc
 50
0.0
 51
52.4184423812
  0
ARC
  5
318
330
1F
100
AcDbEntity
  8
0
  6
Continuous
 62
     7
370
    30
100
AcDbCircle
 10
4.7535576972
 20
4.8258942334
 30
0.0
 40
0.0710000000000076
100
AcDbArc
 50
66.7301760415
 51
232.4184423812
  0
ARC
  5
319
330
1F
100
AcDbEntity
  8
0
  6
Continuous
 62
     7
370
    30
100
AcDbCircle
 10
4.7855576972
 20
4.9003052541
 30
0.0
 40
0.0099999999999901
100
AcDbArc
 50
246.7301760415
 51
0.0
  0
ARC
  5
31A
330
1F
100
AcDbEntity
  8
0
  6
Continuous
 62
     7
370
    30
100
AcDbCircle
 10
4.7335576972
 20
4.9018942334
 30
0.0
 40
0.0620000000000003
100
AcDbArc
 50
0.0
 51
90.0
  0
LINE
  5
31B
330
1F
100
AcDbEntity
  8
0
  6
Continuous
 62
     7
370
    30
100
AcDbLine
 10
4.6395187599
 20
4.719108706
 30
0.0
 11
4.634917513
 21
4.7164521634
 31
0.0
  0
ARC
  5
31C
330
1F
100
AcDbEntity
  8
0
  6
Continuous
 62
     7
370
    30
100
AcDbCircle
 10
4.3575576972
 20
4.9018942334
 30
0.0
 40
0.0620000000000003
100
AcDbArc
 50
90.0
 51
180.0
  0
LINE
  5
31D
330
1F
100
AcDbEntity
  8
0
  6
Continuous
 62
     7
370
    30
100
AcDbLine
 10
4.6395187599
 20
4.7895555405
 30
0.0
 11
4.6191584351
 21
4.7778004897
 31
0.0
  0
LINE
  5
31E
330
1F
100
AcDbEntity
  8
0
  6
Continuous
 62
     7
370
    30
100
AcDbLine
 10
4.6191584351
 20
4.7719436623
 30
0.0
 11
4.6395187599
 21
4.7601886114
 31
0.0
  0
LINE
  5
31F
330
1F
100
AcDbEntity
  8
0
  6
Continuous
 62
     7
370
    30
100
AcDbLine
 10
4.6191584351
 20
4.7367202542
 30
0.0
 11
4.6395187599
 21
4.724965185
 31
0.0
  0
LINE
  5
320
330
1F
100
AcDbEntity
  8
0
  6
Continuous
 62
     7
370
    30
100
AcDbLine
 10
4.7335577002
 20
4.9638942338
 30
0.0
 11
4.6364384288
 21
4.9638942338
 31
0.0
  0
LINE
  5
321
330
1F
100
AcDbEntity
  8
0
  6
Continuous
 62
     7
370
    30
100
AcDbLine
 10
4.6364384288
 20
4.9638942338
 30
0.0
 11
4.6191584351
 21
4.9539176046
 31
0.0
  0
LINE
  5
322
330
1F
100
AcDbEntity
  8
0
  6
Continuous
 62
     7
370
    30
100
AcDbLine
 10
4.6191584351
 20
4.9480607867
 30
0.0
 11
4.6395187599
 21
4.9363057276
 31
0.0
  0
ARC
  5
323
330
1F
100
AcDbEntity
  8
0
  6
Continuous
 62
     7
370
    30
100
AcDbCircle
 10
4.6275576972
 20
4.6798942334
 30
0.0
 40
0.0310000000000006
100
AcDbArc
 50
270.0
 51
75.2623825484
  0
LINE
  5
324
330
1F
100
AcDbEntity
  8
0
  6
Continuous
 62
     7
370
    30
100
AcDbLine
 10
6.2219879057
 20
4.9638942338
 30
0.0
 11
6.1075576943
 21
4.9638942338
 31
0.0
  0
LINE
  5
325
330
1F
100
AcDbEntity
  8
0
  6
Continuous
 62
     7
370
    30
100
AcDbLine
 10
6.3775577152
 20
4.6488942255
 30
0.0
 11
6.2135576764
 21
4.6488942255
 31
0.0
  0
ARC
  5
326
330
1F
100
AcDbEntity
  8
0
  6
Continuous
 62
     7
370
    30
100
AcDbCircle
 10
6.3945906322
 20
4.7139162556
 30
0.0
 40
0.0100000000000086
100
AcDbArc
 50
165.3098749059
 51
203.8403348298
  0
LINE
  5
327
330
1F
100
AcDbEntity
  8
0
  6
Continuous
 62
     7
370
    30
100
AcDbLine
 10
6.389518757
 20
4.9010823034
 30
0.0
 11
6.389518757
 21
4.8952258152
 31
0.0
  0
LINE
  5
328
330
1F
100
AcDbEntity
  8
0
  6
Continuous
 62
     7
370
    30
100
AcDbLine
 10
6.3691584323
 20
4.9186941816
 30
0.0
 11
6.3691584323
 21
4.9128373635
 31
0.0
  0
LINE
  5
329
330
1F
100
AcDbEntity
  8
0
  6
Continuous
 62
     7
370
    30
100
AcDbLine
 10
6.389518757
 20
4.9363057276
 30
0.0
 11
6.389518757
 21
4.9304492417
 31
0.0
  0
LINE
  5
32A
330
1F
100
AcDbEntity
  8
0
  6
Continuous
 62
     7
370
    30
100
AcDbLine
 10
6.3691584323
 20
4.9539176046
 30
0.0
 11
6.3691584323
 21
4.9480607867
 31
0.0
  0
LINE
  5
32B
330
1F
100
AcDbEntity
  8
0
  6
Continuous
 62
     7
370
    30
100
AcDbLine
 10
6.386438426
 20
4.9638942338
 30
0.0
 11
6.3691584323
 21
4.9539176046
 31
0.0
  0
LINE
  5
32C
330
1F
100
AcDbEntity
  8
0
  6
Continuous
 62
     7
370
    30
100
AcDbLine
 10
6.4835576974
 20
4.9638942338
 30
0.0
 11
6.386438426
 21
4.9638942338
 31
0.0
  0
LINE
  5
32D
330
1F
100
AcDbEntity
  8
0
  6
Continuous
 62
     7
370
    30
100
AcDbLine
 10
6.5455576745
 20
4.9018942315
 30
0.0
 11
6.5455576745
 21
4.9003052541
 31
0.0
  0
ARC
  5
32E
330
1F
100
AcDbEntity
  8
0
  6
Continuous
 62
     7
370
    30
100
AcDbCircle
 10
6.5035576972
 20
4.8258942334
 30
0.0
 40
0.0710000000000076
100
AcDbArc
 50
66.7301760415
 51
232.4184423812
  0
LINE
  5
32F
330
1F
100
AcDbEntity
  8
0
  6
Continuous
 62
     7
370
    30
100
AcDbLine
 10
6.4680577031
 20
4.5888942453
 30
0.0
 11
6.1230576886
 21
4.5888942453
 31
0.0
  0
LINE
  5
330
330
1F
100
AcDbEntity
  8
0
  6
Continuous
 62
     7
370
    30
100
AcDbLine
 10
6.389518757
 20
4.719108706
 30
0.0
 11
6.3849175102
 21
4.7164521634
 31
0.0
  0
LINE
  5
331
330
1F
100
AcDbEntity
  8
0
  6
Continuous
 62
     7
370
    30
100
AcDbLine
 10
6.1230576886
 20
4.7537780138
 30
0.0
 11
6.1230576886
 21
4.5888942453
 31
0.0
  0
ARC
  5
332
330
1F
100
AcDbEntity
  8
0
  6
Continuous
 62
     7
370
    30
100
AcDbCircle
 10
6.4480576972
 20
4.7537780078
 30
0.0
 40
0.0200000000000004
100
AcDbArc
 50
0.0
 51
52.4184423812
  0
ARC
  5
333
330
1F
100
AcDbEntity
  8
0
  6
Continuous
 62
     7
370
    30
100
AcDbCircle
 10
6.5355576972
 20
4.9003052541
 30
0.0
 40
0.0099999999999909
100
AcDbArc
 50
246.7301760415
 51
0.0
  0
ARC
  5
334
330
1F
100
AcDbEntity
  8
0
  6
Continuous
 62
     7
370
    30
100
AcDbCircle
 10
6.4835576972
 20
4.9018942334
 30
0.0
 40
0.0620000000000012
100
AcDbArc
 50
0.0
 51
90.0
  0
LINE
  5
335
330
1F
100
AcDbEntity
  8
0
  6
Continuous
 62
     7
370
    30
100
AcDbLine
 10
6.0455577172
 20
4.9018942315
 30
0.0
 11
6.0455577172
 21
4.9003052541
 31
0.0
  0
LINE
  5
336
330
1F
100
AcDbEntity
  8
0
  6
Continuous
 62
     7
370
    30
100
AcDbLine
 10
6.2219879057
 20
4.7877771177
 30
0.0
 11
6.2219879057
 21
4.7936339268
 31
0.0
  0
ARC
  5
337
330
1F
100
AcDbEntity
  8
0
  6
Continuous
 62
     7
370
    30
100
AcDbCircle
 10
6.2135576972
 20
4.6798942334
 30
0.0
 40
0.0310000000000006
100
AcDbArc
 50
95.4495226951
 51
270.0
  0
LINE
  5
338
330
1F
100
AcDbEntity
  8
0
  6
Continuous
 62
     7
370
    30
100
AcDbLine
 10
6.3691584323
 20
4.9480607867
 30
0.0
 11
6.389518757
 21
4.9363057276
 31
0.0
  0
LINE
  5
339
330
1F
100
AcDbEntity
  8
0
  6
Continuous
 62
     7
370
    30
100
AcDbLine
 10
6.3691584323
 20
4.8834707598
 30
0.0
 11
6.3691584323
 21
4.8776139416
 31
0.0
  0
LINE
  5
33A
330
1F
100
AcDbEntity
  8
0
  6
Continuous
 62
     7
370
    30
100
AcDbLine
 10
6.3691584323
 20
4.9128373635
 30
0.0
 11
6.389518757
 21
4.9010823034
 31
0.0
  0
LINE
  5
33B
330
1F
100
AcDbEntity
  8
0
  6
Continuous
 62
     7
370
    30
100
AcDbLine
 10
6.389518757
 20
4.7543321324
 30
0.0
 11
6.3691584323
 21
4.7425770632
 31
0.0
  0
LINE
  5
33C
330
1F
100
AcDbEntity
  8
0
  6
Continuous
 62
     7
370
    30
100
AcDbLine
 10
6.3691584323
 20
4.7367202542
 30
0.0
 11
6.389518757
 21
4.724965185
 31
0.0
  0
ARC
  5
33D
330
1F
100
AcDbEntity
  8
0
  6
Continuous
 62
     7
370
    30
100
AcDbCircle
 10
6.3775576972
 20
4.6798942334
 30
0.0
 40
0.0310000000000009
100
AcDbArc
 50
270.0
 51
75.2623825484
  0
LINE
  5
33E
330
1F
100
AcDbEntity
  8
0
  6
Continuous
 62
     7
370
    30
100
AcDbLine
 10
6.2219887124
 20
4.7173215017
 30
0.0
 11
6.2219887124
 21
4.7231866156
 31
0.0
  0
LINE
  5
33F
330
1F
100
AcDbEntity
  8
0
  6
Continuous
 62
     7
370
    30
100
AcDbLine
 10
6.2016275076
 20
4.7349421431
 30
0.0
 11
6.2016275076
 21
4.7407986404
 31
0.0
  0
LINE
  5
340
330
1F
100
AcDbEntity
  8
0
  6
Continuous
 62
     7
370
    30
100
AcDbLine
 10
6.2016275076
 20
4.805388996
 30
0.0
 11
6.2016275076
 21
4.8112454841
 31
0.0
  0
LINE
  5
341
330
1F
100
AcDbEntity
  8
0
  6
Continuous
 62
     7
370
    30
100
AcDbLine
 10
6.2016275076
 20
4.9110592661
 30
0.0
 11
6.2016275076
 21
4.9169157497
 31
0.0
  0
LINE
  5
342
330
1F
100
AcDbEntity
  8
0
  6
Continuous
 62
     7
370
    30
100
AcDbLine
 10
6.2219879057
 20
4.9286708097
 30
0.0
 11
6.2219879057
 21
4.9345276279
 31
0.0
  0
LINE
  5
343
330
1F
100
AcDbEntity
  8
0
  6
Continuous
 62
     7
370
    30
100
AcDbLine
 10
6.2016275076
 20
4.9462826874
 30
0.0
 11
6.2016275076
 21
4.9521391738
 31
0.0
  0
ARC
  5
344
330
1F
100
AcDbEntity
  8
0
  6
Continuous
 62
     7
370
    30
100
AcDbCircle
 10
6.0555576972
 20
4.9003052541
 30
0.0
 40
0.0099999999999998
100
AcDbArc
 50
180.0
 51
293.2698239585
  0
ARC
  5
345
330
1F
100
AcDbEntity
  8
0
  6
Continuous
 62
     7
370
    30
100
AcDbCircle
 10
6.0875576972
 20
4.8258942334
 30
0.0
 40
0.0710000000000112
100
AcDbArc
 50
307.5815576188
 51
113.2698239585
  0
ARC
  5
346
330
1F
100
AcDbEntity
  8
0
  6
Continuous
 62
     7
370
    30
100
AcDbCircle
 10
6.1430576972
 20
4.7537780078
 30
0.0
 40
0.0199999999999987
100
AcDbArc
 50
127.5815576187
 51
180.0
  0
LINE
  5
347
330
1F
100
AcDbEntity
  8
0
  6
Continuous
 62
     7
370
    30
100
AcDbLine
 10
6.4680577031
 20
4.5888942453
 30
0.0
 11
6.4680577031
 21
4.7537780138
 31
0.0
  0
LINE
  5
348
330
1F
100
AcDbEntity
  8
0
  6
Continuous
 62
     7
370
    30
100
AcDbLine
 10
6.389518757
 20
4.8658588816
 30
0.0
 11
6.389518757
 21
4.8600023934
 31
0.0
  0
LINE
  5
349
330
1F
100
AcDbEntity
  8
0
  6
Continuous
 62
     7
370
    30
100
AcDbLine
 10
6.389518757
 20
4.8952258152
 30
0.0
 11
6.3691584323
 21
4.8834707598
 31
0.0
  0
LINE
  5
34A
330
1F
100
AcDbEntity
  8
0
  6
Continuous
 62
     7
370
    30
100
AcDbLine
 10
6.3691584323
 20
4.8482473334
 30
0.0
 11
6.3691584323
 21
4.8423905152
 31
0.0
  0
LINE
  5
34B
330
1F
100
AcDbEntity
  8
0
  6
Continuous
 62
     7
370
    30
100
AcDbLine
 10
6.3691584323
 20
4.8776139416
 30
0.0
 11
6.389518757
 21
4.8658588816
 31
0.0
  0
LINE
  5
34C
330
1F
100
AcDbEntity
  8
0
  6
Continuous
 62
     7
370
    30
100
AcDbLine
 10
6.389518757
 20
4.8306354551
 30
0.0
 11
6.389518757
 21
4.824778967
 31
0.0
  0
LINE
  5
34D
330
1F
100
AcDbEntity
  8
0
  6
Continuous
 62
     7
370
    30
100
AcDbLine
 10
6.389518757
 20
4.8600023934
 30
0.0
 11
6.3691584323
 21
4.8482473334
 31
0.0
  0
LINE
  5
34E
330
1F
100
AcDbEntity
  8
0
  6
Continuous
 62
     7
370
    30
100
AcDbLine
 10
6.3691584323
 20
4.8423905152
 30
0.0
 11
6.389518757
 21
4.8306354551
 31
0.0
  0
LINE
  5
34F
330
1F
100
AcDbEntity
  8
0
  6
Continuous
 62
     7
370
    30
100
AcDbLine
 10
6.389518757
 20
4.824778967
 30
0.0
 11
6.3691584323
 21
4.8130239069
 31
0.0
  0
LINE
  5
350
330
1F
100
AcDbEntity
  8
0
  6
Continuous
 62
     7
370
    30
100
AcDbLine
 10
6.3691584323
 20
4.8071670887
 30
0.0
 11
6.389518757
 21
4.7954120379
 31
0.0
  0
LINE
  5
351
330
1F
100
AcDbEntity
  8
0
  6
Continuous
 62
     7
370
    30
100
AcDbLine
 10
6.389518757
 20
4.7895555405
 30
0.0
 11
6.3691584323
 21
4.7778004897
 31
0.0
  0
LINE
  5
352
330
1F
100
AcDbEntity
  8
0
  6
Continuous
 62
     7
370
    30
100
AcDbLine
 10
6.3691584323
 20
4.7719436623
 30
0.0
 11
6.389518757
 21
4.7601886114
 31
0.0
  0
LINE
  5
353
330
1F
100
AcDbEntity
  8
0
  6
Continuous
 62
     7
370
    30
100
AcDbLine
 10
6.2106136704
 20
4.7107541192
 30
0.0
 11
6.2219887124
 21
4.7173215017
 31
0.0
  0
LINE
  5
354
330
1F
100
AcDbEntity
  8
0
  6
Continuous
 62
     7
370
    30
100
AcDbLine
 10
6.2219887124
 20
4.7231866156
 30
0.0
 11
6.2016275076
 21
4.7349421431
 31
0.0
  0
LINE
  5
355
330
1F
100
AcDbEntity
  8
0
  6
Continuous
 62
     7
370
    30
100
AcDbLine
 10
6.2016275076
 20
4.7407986404
 30
0.0
 11
6.2219879057
 21
4.7525536913
 31
0.0
  0
LINE
  5
356
330
1F
100
AcDbEntity
  8
0
  6
Continuous
 62
     7
370
    30
100
AcDbLine
 10
6.2219879057
 20
4.7584105187
 30
0.0
 11
6.2016275076
 21
4.7701655695
 31
0.0
  0
LINE
  5
357
330
1F
100
AcDbEntity
  8
0
  6
Continuous
 62
     7
370
    30
100
AcDbLine
 10
6.2016275076
 20
4.7760220485
 30
0.0
 11
6.2219879057
 21
4.7877771177
 31
0.0
  0
ARC
  5
358
330
1F
100
AcDbEntity
  8
0
  6
Continuous
 62
     7
370
    30
100
AcDbCircle
 10
6.1075576972
 20
4.9018942334
 30
0.0
 40
0.0620000000000003
100
AcDbArc
 50
90.0
 51
180.0
  0
LINE
  5
359
330
1F
100
AcDbEntity
  8
0
  6
Continuous
 62
     7
370
    30
100
AcDbLine
 10
6.2219879057
 20
4.8230005442
 30
0.0
 11
6.2219879057
 21
4.8288573532
 31
0.0
  0
LINE
  5
35A
330
1F
100
AcDbEntity
  8
0
  6
Continuous
 62
     7
370
    30
100
AcDbLine
 10
6.2016275076
 20
4.7701655695
 30
0.0
 11
6.2016275076
 21
4.7760220485
 31
0.0
  0
LINE
  5
35B
330
1F
100
AcDbEntity
  8
0
  6
Continuous
 62
     7
370
    30
100
AcDbLine
 10
6.2016275076
 20
4.8464689014
 30
0.0
 11
6.2219879057
 21
4.8582239614
 31
0.0
  0
LINE
  5
35C
330
1F
100
AcDbEntity
  8
0
  6
Continuous
 62
     7
370
    30
100
AcDbLine
 10
6.2016275076
 20
4.8816923278
 30
0.0
 11
6.2219879057
 21
4.8934473879
 31
0.0
  0
LINE
  5
35D
330
1F
100
AcDbEntity
  8
0
  6
Continuous
 62
     7
370
    30
100
AcDbLine
 10
6.2016275076
 20
4.8406124132
 30
0.0
 11
6.2016275076
 21
4.8464689014
 31
0.0
  0
LINE
  5
35E
330
1F
100
AcDbEntity
  8
0
  6
Continuous
 62
     7
370
    30
100
AcDbLine
 10
6.2219879057
 20
4.8582239614
 30
0.0
 11
6.2219879057
 21
4.8640807796
 31
0.0
  0
LINE
  5
35F
330
1F
100
AcDbEntity
  8
0
  6
Continuous
 62
     7
370
    30
100
AcDbLine
 10
6.2016275076
 20
4.9169157497
 30
0.0
 11
6.2219879057
 21
4.9286708097
 31
0.0
  0
LINE
  5
360
330
1F
100
AcDbEntity
  8
0
  6
Continuous
 62
     7
370
    30
100
AcDbLine
 10
6.2016275076
 20
4.8758358396
 30
0.0
 11
6.2016275076
 21
4.8816923278
 31
0.0
  0
LINE
  5
361
330
1F
100
AcDbEntity
  8
0
  6
Continuous
 62
     7
370
    30
100
AcDbLine
 10
6.2219879057
 20
4.8934473879
 30
0.0
 11
6.2219879057
 21
4.899304206
 31
0.0
  0
LINE
  5
362
330
1F
100
AcDbEntity
  8
0
  6
Continuous
 62
     7
370
    30
100
AcDbLine
 10
6.2016275076
 20
4.9521391738
 30
0.0
 11
6.2219879057
 21
4.9638942338
 31
0.0
  0
LINE
  5
363
330
1F
100
AcDbEntity
  8
0
  6
Continuous
 62
     7
370
    30
100
AcDbLine
 10
6.2219879057
 20
4.8640807796
 30
0.0
 11
6.2016275076
 21
4.8758358396
 31
0.0
  0
LINE
  5
364
330
1F
100
AcDbEntity
  8
0
  6
Continuous
 62
     7
370
    30
100
AcDbLine
 10
6.3691584323
 20
4.8130239069
 30
0.0
 11
6.3691584323
 21
4.8071670887
 31
0.0
  0
LINE
  5
365
330
1F
100
AcDbEntity
  8
0
  6
Continuous
 62
     7
370
    30
100
AcDbLine
 10
6.2219879057
 20
4.899304206
 30
0.0
 11
6.2016275076
 21
4.9110592661
 31
0.0
  0
LINE
  5
366
330
1F
100
AcDbEntity
  8
0
  6
Continuous
 62
     7
370
    30
100
AcDbLine
 10
6.389518757
 20
4.7954120379
 30
0.0
 11
6.389518757
 21
4.7895555405
 31
0.0
  0
LINE
  5
367
330
1F
100
AcDbEntity
  8
0
  6
Continuous
 62
     7
370
    30
100
AcDbLine
 10
6.2219879057
 20
4.9345276279
 30
0.0
 11
6.2016275076
 21
4.9462826874
 31
0.0
  0
LINE
  5
368
330
1F
100
AcDbEntity
  8
0
  6
Continuous
 62
     7
370
    30
100
AcDbLine
 10
6.3691584323
 20
4.7425770632
 30
0.0
 11
6.3691584323
 21
4.7367202542
 31
0.0
  0
LINE
  5
369
330
1F
100
AcDbEntity
  8
0
  6
Continuous
 62
     7
370
    30
100
AcDbLine
 10
6.389518757
 20
4.724965185
 30
0.0
 11
6.389518757
 21
4.719108706
 31
0.0
  0
LINE
  5
36A
330
1F
100
AcDbEntity
  8
0
  6
Continuous
 62
     7
370
    30
100
AcDbLine
 10
6.2219879057
 20
4.7936339268
 30
0.0
 11
6.2016275076
 21
4.805388996
 31
0.0
  0
LINE
  5
36B
330
1F
100
AcDbEntity
  8
0
  6
Continuous
 62
     7
370
    30
100
AcDbLine
 10
6.2219879057
 20
4.8288573532
 30
0.0
 11
6.2016275076
 21
4.8406124132
 31
0.0
  0
LINE
  5
36C
330
1F
100
AcDbEntity
  8
0
  6
Continuous
 62
     7
370
    30
100
AcDbLine
 10
6.3691584323
 20
4.7778004897
 30
0.0
 11
6.3691584323
 21
4.7719436623
 31
0.0
  0
LINE
  5
36D
330
1F
100
AcDbEntity
  8
0
  6
Continuous
 62
     7
370
    30
100
AcDbLine
 10
6.389518757
 20
4.7601886114
 30
0.0
 11
6.389518757
 21
4.7543321324
 31
0.0
  0
LINE
  5
36E
330
1F
100
AcDbEntity
  8
0
  6
Continuous
 62
     7
370
    30
100
AcDbLine
 10
6.389518757
 20
4.9304492417
 30
0.0
 11
6.3691584323
 21
4.9186941816
 31
0.0
  0
LINE
  5
36F
330
1F
100
AcDbEntity
  8
0
  6
Continuous
 62
     7
370
    30
100
AcDbLine
 10
6.2219879057
 20
4.7525536913
 30
0.0
 11
6.2219879057
 21
4.7584105187
 31
0.0
  0
LINE
  5
370
330
1F
100
AcDbEntity
  8
0
  6
Continuous
 62
     7
370
    30
100
AcDbLine
 10
6.2016275076
 20
4.8112454841
 30
0.0
 11
6.2219879057
 21
4.8230005442
 31
0.0
  0
LINE
  5
371
330
1F
100
AcDbEntity
  8
0
  6
Continuous
 62
     7
370
    30
100
AcDbLine
 10
2.7219879113
 20
4.9638942338
 30
0.0
 11
2.6075575533
 21
4.9638942338
 31
0.0
  0
LINE
  5
372
330
1F
100
AcDbEntity
  8
0
  6
Continuous
 62
     7
370
    30
100
AcDbLine
 10
2.7219879113
 20
4.9286708097
 30
0.0
 11
2.7219879113
 21
4.9345276279
 31
0.0
  0
LINE
  5
373
330
1F
100
AcDbEntity
  8
0
  6
Continuous
 62
     7
370
    30
100
AcDbLine
 10
2.7016275865
 20
4.9169157497
 30
0.0
 11
2.7219879113
 21
4.9286708097
 31
0.0
  0
LINE
  5
374
330
1F
100
AcDbEntity
  8
0
  6
Continuous
 62
     7
370
    30
100
AcDbLine
 10
2.7219879113
 20
4.8582239614
 30
0.0
 11
2.7219879113
 21
4.8640807796
 31
0.0
  0
LINE
  5
375
330
1F
100
AcDbEntity
  8
0
  6
Continuous
 62
     7
370
    30
100
AcDbLine
 10
2.7219879113
 20
4.8288573532
 30
0.0
 11
2.7016275865
 21
4.8406124132
 31
0.0
  0
LINE
  5
376
330
1F
100
AcDbEntity
  8
0
  6
Continuous
 62
     7
370
    30
100
AcDbLine
 10
2.7106137494
 20
4.7107541192
 30
0.0
 11
2.7219887913
 21
4.7173215017
 31
0.0
  0
LINE
  5
377
330
1F
100
AcDbEntity
  8
0
  6
Continuous
 62
     7
370
    30
100
AcDbLine
 10
2.8895189093
 20
4.8306354551
 30
0.0
 11
2.8895189093
 21
4.824778967
 31
0.0
  0
LINE
  5
378
330
1F
100
AcDbEntity
  8
0
  6
Continuous
 62
     7
370
    30
100
AcDbLine
 10
2.8691582912
 20
4.8482473334
 30
0.0
 11
2.8691582912
 21
4.8423905152
 31
0.0
  0
LINE
  5
379
330
1F
100
AcDbEntity
  8
0
  6
Continuous
 62
     7
370
    30
100
AcDbLine
 10
2.8895189093
 20
4.8658588816
 30
0.0
 11
2.8895189093
 21
4.8600023934
 31
0.0
  0
LINE
  5
37A
330
1F
100
AcDbEntity
  8
0
  6
Continuous
 62
     7
370
    30
100
AcDbLine
 10
2.8691582912
 20
4.8834707598
 30
0.0
 11
2.8691582912
 21
4.8776139416
 31
0.0
  0
LINE
  5
37B
330
1F
100
AcDbEntity
  8
0
  6
Continuous
 62
     7
370
    30
100
AcDbLine
 10
2.8895189093
 20
4.9010823034
 30
0.0
 11
2.8895189093
 21
4.8952258152
 31
0.0
  0
LINE
  5
37C
330
1F
100
AcDbEntity
  8
0
  6
Continuous
 62
     7
370
    30
100
AcDbLine
 10
2.8691582912
 20
4.9186941816
 30
0.0
 11
2.8691582912
 21
4.9128373635
 31
0.0
  0
LINE
  5
37D
330
1F
100
AcDbEntity
  8
0
  6
Continuous
 62
     7
370
    30
100
AcDbLine
 10
3.0455576801
 20
4.9018942315
 30
0.0
 11
3.0455576801
 21
4.9003052541
 31
0.0
  0
ARC
  5
37E
330
1F
100
AcDbEntity
  8
0
  6
Continuous
 62
     7
370
    30
100
AcDbCircle
 10
3.0355576972
 20
4.9003052541
 30
0.0
 40
0.0099999999999899
100
AcDbArc
 50
246.7301760415
 51
0.0
  0
ARC
  5
37F
330
1F
100
AcDbEntity
  8
0
  6
Continuous
 62
     7
370
    30
100
AcDbCircle
 10
3.0035576972
 20
4.8258942334
 30
0.0
 40
0.0710000000000076
100
AcDbArc
 50
66.7301760415
 51
232.4184423812
  0
ARC
  5
380
330
1F
100
AcDbEntity
  8
0
  6
Continuous
 62
     7
370
    30
100
AcDbCircle
 10
2.9480576972
 20
4.7537780078
 30
0.0
 40
0.0200000000000004
100
AcDbArc
 50
0.0
 51
52.4184423812
  0
LINE
  5
381
330
1F
100
AcDbEntity
  8
0
  6
Continuous
 62
     7
370
    30
100
AcDbLine
 10
2.9680577087
 20
4.5888942453
 30
0.0
 11
2.9680577087
 21
4.7537780138
 31
0.0
  0
LINE
  5
382
330
1F
100
AcDbEntity
  8
0
  6
Continuous
 62
     7
370
    30
100
AcDbLine
 10
2.9680577087
 20
4.5888942453
 30
0.0
 11
2.6230576942
 21
4.5888942453
 31
0.0
  0
ARC
  5
383
330
1F
100
AcDbEntity
  8
0
  6
Continuous
 62
     7
370
    30
100
AcDbCircle
 10
2.6430576972
 20
4.7537780078
 30
0.0
 40
0.0199999999999988
100
AcDbArc
 50
127.5815576187
 51
180.0
  0
ARC
  5
384
330
1F
100
AcDbEntity
  8
0
  6
Continuous
 62
     7
370
    30
100
AcDbCircle
 10
2.9835576972
 20
4.9018942334
 30
0.0
 40
0.0620000000000003
100
AcDbArc
 50
0.0
 51
90.0
  0
LINE
  5
385
330
1F
100
AcDbEntity
  8
0
  6
Continuous
 62
     7
370
    30
100
AcDbLine
 10
2.7219879113
 20
4.8640807796
 30
0.0
 11
2.7016275865
 21
4.8758358396
 31
0.0
  0
LINE
  5
386
330
1F
100
AcDbEntity
  8
0
  6
Continuous
 62
     7
370
    30
100
AcDbLine
 10
2.7219879113
 20
4.899304206
 30
0.0
 11
2.7016275865
 21
4.9110592661
 31
0.0
  0
LINE
  5
387
330
1F
100
AcDbEntity
  8
0
  6
Continuous
 62
     7
370
    30
100
AcDbLine
 10
2.7219879113
 20
4.9345276279
 30
0.0
 11
2.7016275865
 21
4.9462826874
 31
0.0
  0
LINE
  5
388
330
1F
100
AcDbEntity
  8
0
  6
Continuous
 62
     7
370
    30
100
AcDbLine
 10
2.7016275865
 20
4.9521391738
 30
0.0
 11
2.7219879113
 21
4.9638942338
 31
0.0
  0
LINE
  5
389
330
1F
100
AcDbEntity
  8
0
  6
Continuous
 62
     7
370
    30
100
AcDbLine
 10
2.983557703
 20
4.9638942338
 30
0.0
 11
2.8864383583
 21
4.9638942338
 31
0.0
  0
LINE
  5
38A
330
1F
100
AcDbEntity
  8
0
  6
Continuous
 62
     7
370
    30
100
AcDbLine
 10
2.8864383583
 20
4.9638942338
 30
0.0
 11
2.8691582912
 21
4.9539176046
 31
0.0
  0
LINE
  5
38B
330
1F
100
AcDbEntity
  8
0
  6
Continuous
 62
     7
370
    30
100
AcDbLine
 10
2.8691582912
 20
4.9480607867
 30
0.0
 11
2.8895189093
 21
4.9363057276
 31
0.0
  0
LINE
  5
38C
330
1F
100
AcDbEntity
  8
0
  6
Continuous
 62
     7
370
    30
100
AcDbLine
 10
2.8895189093
 20
4.9304492417
 30
0.0
 11
2.8691582912
 21
4.9186941816
 31
0.0
  0
LINE
  5
38D
330
1F
100
AcDbEntity
  8
0
  6
Continuous
 62
     7
370
    30
100
AcDbLine
 10
2.8691582912
 20
4.9128373635
 30
0.0
 11
2.8895189093
 21
4.9010823034
 31
0.0
  0
LINE
  5
38E
330
1F
100
AcDbEntity
  8
0
  6
Continuous
 62
     7
370
    30
100
AcDbLine
 10
2.8895189093
 20
4.8952258152
 30
0.0
 11
2.8691582912
 21
4.8834707598
 31
0.0
  0
ARC
  5
38F
330
1F
100
AcDbEntity
  8
0
  6
Continuous
 62
     7
370
    30
100
AcDbCircle
 10
2.6075576972
 20
4.9018942334
 30
0.0
 40
0.0620000000000003
100
AcDbArc
 50
90.0
 51
180.0
  0
LINE
  5
390
330
1F
100
AcDbEntity
  8
0
  6
Continuous
 62
     7
370
    30
100
AcDbLine
 10
2.7016275865
 20
4.8758358396
 30
0.0
 11
2.7016275865
 21
4.8816923278
 31
0.0
  0
LINE
  5
391
330
1F
100
AcDbEntity
  8
0
  6
Continuous
 62
     7
370
    30
100
AcDbLine
 10
2.7016275865
 20
4.9462826874
 30
0.0
 11
2.7016275865
 21
4.9521391738
 31
0.0
  0
LINE
  5
392
330
1F
100
AcDbEntity
  8
0
  6
Continuous
 62
     7
370
    30
100
AcDbLine
 10
2.5455575761
 20
4.9018942315
 30
0.0
 11
2.5455575761
 21
4.9003052541
 31
0.0
  0
ARC
  5
393
330
1F
100
AcDbEntity
  8
0
  6
Continuous
 62
     7
370
    30
100
AcDbCircle
 10
2.5555576972
 20
4.9003052541
 30
0.0
 40
0.0099999999999989
100
AcDbArc
 50
180.0
 51
293.2698239585
  0
ARC
  5
394
330
1F
100
AcDbEntity
  8
0
  6
Continuous
 62
     7
370
    30
100
AcDbCircle
 10
2.5875576972
 20
4.8258942334
 30
0.0
 40
0.0710000000000112
100
AcDbArc
 50
307.5815576188
 51
113.2698239585
  0
LINE
  5
395
330
1F
100
AcDbEntity
  8
0
  6
Continuous
 62
     7
370
    30
100
AcDbLine
 10
2.8691582912
 20
4.9539176046
 30
0.0
 11
2.8691582912
 21
4.9480607867
 31
0.0
  0
LINE
  5
396
330
1F
100
AcDbEntity
  8
0
  6
Continuous
 62
     7
370
    30
100
AcDbLine
 10
2.6230576942
 20
4.7537780138
 30
0.0
 11
2.6230576942
 21
4.5888942453
 31
0.0
  0
LINE
  5
397
330
1F
100
AcDbEntity
  8
0
  6
Continuous
 62
     7
370
    30
100
AcDbLine
 10
2.8895189093
 20
4.9363057276
 30
0.0
 11
2.8895189093
 21
4.9304492417
 31
0.0
  0
LINE
  5
398
330
1F
100
AcDbEntity
  8
0
  6
Continuous
 62
     7
370
    30
100
AcDbLine
 10
2.8691582912
 20
4.8130239069
 30
0.0
 11
2.8691582912
 21
4.8071670887
 31
0.0
  0
LINE
  5
399
330
1F
100
AcDbEntity
  8
0
  6
Continuous
 62
     7
370
    30
100
AcDbLine
 10
2.8895189093
 20
4.7954120379
 30
0.0
 11
2.8895189093
 21
4.7895555405
 31
0.0
  0
LINE
  5
39A
330
1F
100
AcDbEntity
  8
0
  6
Continuous
 62
     7
370
    30
100
AcDbLine
 10
2.8691582912
 20
4.7778004897
 30
0.0
 11
2.8691582912
 21
4.7719436623
 31
0.0
  0
LINE
  5
39B
330
1F
100
AcDbEntity
  8
0
  6
Continuous
 62
     7
370
    30
100
AcDbLine
 10
2.8895189093
 20
4.7601886114
 30
0.0
 11
2.8895189093
 21
4.7543321324
 31
0.0
  0
LINE
  5
39C
330
1F
100
AcDbEntity
  8
0
  6
Continuous
 62
     7
370
    30
100
AcDbLine
 10
2.8691582912
 20
4.7425770632
 30
0.0
 11
2.8691582912
 21
4.7367202542
 31
0.0
  0
LINE
  5
39D
330
1F
100
AcDbEntity
  8
0
  6
Continuous
 62
     7
370
    30
100
AcDbLine
 10
2.8895189093
 20
4.724965185
 30
0.0
 11
2.8895189093
 21
4.719108706
 31
0.0
  0
LINE
  5
39E
330
1F
100
AcDbEntity
  8
0
  6
Continuous
 62
     7
370
    30
100
AcDbLine
 10
2.7219887913
 20
4.7231866156
 30
0.0
 11
2.7016275865
 21
4.7349421431
 31
0.0
  0
LINE
  5
39F
330
1F
100
AcDbEntity
  8
0
  6
Continuous
 62
     7
370
    30
100
AcDbLine
 10
2.7016275865
 20
4.7407986404
 30
0.0
 11
2.7219879113
 21
4.7525536913
 31
0.0
  0
LINE
  5
3A0
330
1F
100
AcDbEntity
  8
0
  6
Continuous
 62
     7
370
    30
100
AcDbLine
 10
2.7219879113
 20
4.7584105187
 30
0.0
 11
2.7016275865
 21
4.7701655695
 31
0.0
  0
LINE
  5
3A1
330
1F
100
AcDbEntity
  8
0
  6
Continuous
 62
     7
370
    30
100
AcDbLine
 10
2.7016275865
 20
4.7760220485
 30
0.0
 11
2.7219879113
 21
4.7877771177
 31
0.0
  0
LINE
  5
3A2
330
1F
100
AcDbEntity
  8
0
  6
Continuous
 62
     7
370
    30
100
AcDbLine
 10
2.7219879113
 20
4.7936339268
 30
0.0
 11
2.7016275865
 21
4.805388996
 31
0.0
  0
LINE
  5
3A3
330
1F
100
AcDbEntity
  8
0
  6
Continuous
 62
     7
370
    30
100
AcDbLine
 10
2.7016275865
 20
4.8112454841
 30
0.0
 11
2.7219879113
 21
4.8230005442
 31
0.0
  0
LINE
  5
3A4
330
1F
100
AcDbEntity
  8
0
  6
Continuous
 62
     7
370
    30
100
AcDbLine
 10
2.7219879113
 20
4.8230005442
 30
0.0
 11
2.7219879113
 21
4.8288573532
 31
0.0
  0
LINE
  5
3A5
330
1F
100
AcDbEntity
  8
0
  6
Continuous
 62
     7
370
    30
100
AcDbLine
 10
2.7016275865
 20
4.8464689014
 30
0.0
 11
2.7219879113
 21
4.8582239614
 31
0.0
  0
LINE
  5
3A6
330
1F
100
AcDbEntity
  8
0
  6
Continuous
 62
     7
370
    30
100
AcDbLine
 10
2.7016275865
 20
4.8816923278
 30
0.0
 11
2.7219879113
 21
4.8934473879
 31
0.0
  0
LINE
  5
3A7
330
1F
100
AcDbEntity
  8
0
  6
Continuous
 62
     7
370
    30
100
AcDbLine
 10
2.7016275865
 20
4.8406124132
 30
0.0
 11
2.7016275865
 21
4.8464689014
 31
0.0
  0
LINE
  5
3A8
330
1F
100
AcDbEntity
  8
0
  6
Continuous
 62
     7
370
    30
100
AcDbLine
 10
2.8691582912
 20
4.8423905152
 30
0.0
 11
2.8895189093
 21
4.8306354551
 31
0.0
  0
LINE
  5
3A9
330
1F
100
AcDbEntity
  8
0
  6
Continuous
 62
     7
370
    30
100
AcDbLine
 10
2.8691582912
 20
4.8071670887
 30
0.0
 11
2.8895189093
 21
4.7954120379
 31
0.0
  0
LINE
  5
3AA
330
1F
100
AcDbEntity
  8
0
  6
Continuous
 62
     7
370
    30
100
AcDbLine
 10
2.7219879113
 20
4.8934473879
 30
0.0
 11
2.7219879113
 21
4.899304206
 31
0.0
  0
LINE
  5
3AB
330
1F
100
AcDbEntity
  8
0
  6
Continuous
 62
     7
370
    30
100
AcDbLine
 10
2.7016275865
 20
4.9110592661
 30
0.0
 11
2.7016275865
 21
4.9169157497
 31
0.0
  0
LINE
  5
3AC
330
1F
100
AcDbEntity
  8
0
  6
Continuous
 62
     7
370
    30
100
AcDbLine
 10
2.8691582912
 20
4.7719436623
 30
0.0
 11
2.8895189093
 21
4.7601886114
 31
0.0
  0
LINE
  5
3AD
330
1F
100
AcDbEntity
  8
0
  6
Continuous
 62
     7
370
    30
100
AcDbLine
 10
2.8895189093
 20
4.7543321324
 30
0.0
 11
2.8691582912
 21
4.7425770632
 31
0.0
  0
LINE
  5
3AE
330
1F
100
AcDbEntity
  8
0
  6
Continuous
 62
     7
370
    30
100
AcDbLine
 10
2.8691582912
 20
4.7367202542
 30
0.0
 11
2.8895189093
 21
4.724965185
 31
0.0
  0
LINE
  5
3AF
330
1F
100
AcDbEntity
  8
0
  6
Continuous
 62
     7
370
    30
100
AcDbLine
 10
2.8895189093
 20
4.719108706
 30
0.0
 11
2.8849174425
 21
4.7164521634
 31
0.0
  0
ARC
  5
3B0
330
1F
100
AcDbEntity
  8
0
  6
Continuous
 62
     7
370
    30
100
AcDbCircle
 10
2.8945906322
 20
4.7139162556
 30
0.0
 40
0.0100000000000086
100
AcDbArc
 50
165.3098749059
 51
203.8403348298
  0
ARC
  5
3B1
330
1F
100
AcDbEntity
  8
0
  6
Continuous
 62
     7
370
    30
100
AcDbCircle
 10
2.8775576972
 20
4.6798942334
 30
0.0
 40
0.0310000000000006
100
AcDbArc
 50
270.0
 51
75.2623825484
  0
LINE
  5
3B2
330
1F
100
AcDbEntity
  8
0
  6
Continuous
 62
     7
370
    30
100
AcDbLine
 10
2.8775577942
 20
4.6488942255
 30
0.0
 11
2.7135576087
 21
4.6488942255
 31
0.0
  0
ARC
  5
3B3
330
1F
100
AcDbEntity
  8
0
  6
Continuous
 62
     7
370
    30
100
AcDbCircle
 10
2.7135576972
 20
4.6798942334
 30
0.0
 40
0.0310000000000006
100
AcDbArc
 50
95.4495226951
 51
270.0
  0
LINE
  5
3B4
330
1F
100
AcDbEntity
  8
0
  6
Continuous
 62
     7
370
    30
100
AcDbLine
 10
2.7219887913
 20
4.7173215017
 30
0.0
 11
2.7219887913
 21
4.7231866156
 31
0.0
  0
LINE
  5
3B5
330
1F
100
AcDbEntity
  8
0
  6
Continuous
 62
     7
370
    30
100
AcDbLine
 10
2.7016275865
 20
4.7349421431
 30
0.0
 11
2.7016275865
 21
4.7407986404
 31
0.0
  0
LINE
  5
3B6
330
1F
100
AcDbEntity
  8
0
  6
Continuous
 62
     7
370
    30
100
AcDbLine
 10
2.8895189093
 20
4.8600023934
 30
0.0
 11
2.8691582912
 21
4.8482473334
 31
0.0
  0
LINE
  5
3B7
330
1F
100
AcDbEntity
  8
0
  6
Continuous
 62
     7
370
    30
100
AcDbLine
 10
2.7219879113
 20
4.7525536913
 30
0.0
 11
2.7219879113
 21
4.7584105187
 31
0.0
  0
LINE
  5
3B8
330
1F
100
AcDbEntity
  8
0
  6
Continuous
 62
     7
370
    30
100
AcDbLine
 10
2.8895189093
 20
4.824778967
 30
0.0
 11
2.8691582912
 21
4.8130239069
 31
0.0
  0
LINE
  5
3B9
330
1F
100
AcDbEntity
  8
0
  6
Continuous
 62
     7
370
    30
100
AcDbLine
 10
2.7016275865
 20
4.7701655695
 30
0.0
 11
2.7016275865
 21
4.7760220485
 31
0.0
  0
LINE
  5
3BA
330
1F
100
AcDbEntity
  8
0
  6
Continuous
 62
     7
370
    30
100
AcDbLine
 10
2.8895189093
 20
4.7895555405
 30
0.0
 11
2.8691582912
 21
4.7778004897
 31
0.0
  0
LINE
  5
3BB
330
1F
100
AcDbEntity
  8
0
  6
Continuous
 62
     7
370
    30
100
AcDbLine
 10
2.7219879113
 20
4.7877771177
 30
0.0
 11
2.7219879113
 21
4.7936339268
 31
0.0
  0
LINE
  5
3BC
330
1F
100
AcDbEntity
  8
0
  6
Continuous
 62
     7
370
    30
100
AcDbLine
 10
2.7016275865
 20
4.805388996
 30
0.0
 11
2.7016275865
 21
4.8112454841
 31
0.0
  0
LINE
  5
3BD
330
1F
100
AcDbEntity
  8
0
  6
Continuous
 62
     7
370
    30
100
AcDbLine
 10
2.8691582912
 20
4.8776139416
 30
0.0
 11
2.8895189093
 21
4.8658588816
 31
0.0
  0
LINE
  5
3BE
330
1F
100
AcDbEntity
  8
0
  6
Continuous
 62
     7
370
    30
100
AcDbLine
 10
1.5509094664
 20
3.8762257147
 30
0.0
 11
1.414205979
 21
3.8762257147
 31
0.0
  0
LINE
  5
3BF
330
1F
100
AcDbEntity
  8
0
  6
Continuous
 62
     7
370
    30
100
AcDbLine
 10
1.543557738
 20
4.3973846243
 30
0.0
 11
1.4215577074
 21
4.3973846243
 31
0.0
  0
LINE
  5
3C0
330
1F
100
AcDbEntity
  8
0
  6
Continuous
 62
     7
370
    30
100
AcDbLine
 10
1.5655577772
 20
4.3846829243
 30
0.0
 11
1.3995576682
 21
4.3846829243
 31
0.0
  0
LINE
  5
3C1
330
1F
100
AcDbEntity
  8
0
  6
Continuous
 62
     7
370
    30
100
AcDbLine
 10
1.5655577772
 20
4.6069051439
 30
0.0
 11
1.3995576682
 21
4.6069051439
 31
0.0
  0
LINE
  5
3C2
330
1F
100
AcDbEntity
  8
0
  6
Continuous
 62
     7
370
    30
100
AcDbLine
 10
1.4215577074
 20
4.5942034439
 30
0.0
 11
1.543557738
 21
4.5942034439
 31
0.0
  0
LINE
  5
3C3
330
1F
100
AcDbEntity
  8
0
  6
Continuous
 62
     7
370
    30
100
AcDbLine
 10
1.543557738
 20
4.6196068438
 30
0.0
 11
1.4215577074
 21
4.6196068438
 31
0.0
  0
LINE
  5
3C4
330
1F
100
AcDbEntity
  8
0
  6
Continuous
 62
     7
370
    30
100
AcDbLine
 10
1.543557738
 20
4.3418290694
 30
0.0
 11
1.4215577074
 21
4.3418290694
 31
0.0
  0
LINE
  5
3C5
330
1F
100
AcDbEntity
  8
0
  6
Continuous
 62
     7
370
    30
100
AcDbLine
 10
1.5655577772
 20
4.3291273694
 30
0.0
 11
1.3995576682
 21
4.3291273694
 31
0.0
  0
LINE
  5
3C6
330
1F
100
AcDbEntity
  8
0
  6
Continuous
 62
     7
370
    30
100
AcDbLine
 10
1.4215577074
 20
4.3164256695
 30
0.0
 11
1.543557738
 21
4.3164256695
 31
0.0
  0
LINE
  5
3C7
330
1F
100
AcDbEntity
  8
0
  6
Continuous
 62
     7
370
    30
100
AcDbLine
 10
1.543557738
 20
4.8418290633
 30
0.0
 11
1.4215577074
 21
4.8418290633
 31
0.0
  0
LINE
  5
3C8
330
1F
100
AcDbEntity
  8
0
  6
Continuous
 62
     7
370
    30
100
AcDbLine
 10
1.5655577772
 20
4.8291273634
 30
0.0
 11
1.3995576682
 21
4.8291273634
 31
0.0
  0
LINE
  5
3C9
330
1F
100
AcDbEntity
  8
0
  6
Continuous
 62
     7
370
    30
100
AcDbLine
 10
1.4215577074
 20
4.3719812244
 30
0.0
 11
1.543557738
 21
4.3719812244
 31
0.0
  0
LINE
  5
3CA
330
1F
100
AcDbEntity
  8
0
  6
Continuous
 62
     7
370
    30
100
AcDbLine
 10
1.5655577772
 20
4.4402384792
 30
0.0
 11
1.3995576682
 21
4.4402384792
 31
0.0
  0
LINE
  5
3CB
330
1F
100
AcDbEntity
  8
0
  6
Continuous
 62
     7
370
    30
100
AcDbLine
 10
1.4215577074
 20
4.4275367793
 30
0.0
 11
1.543557738
 21
4.4275367793
 31
0.0
  0
LINE
  5
3CC
330
1F
100
AcDbEntity
  8
0
  6
Continuous
 62
     7
370
    30
100
AcDbLine
 10
1.5655577772
 20
4.2735717779
 30
0.0
 11
1.3995576682
 21
4.2735717779
 31
0.0
  0
LINE
  5
3CD
330
1F
100
AcDbEntity
  8
0
  6
Continuous
 62
     7
370
    30
100
AcDbLine
 10
1.4215577074
 20
4.260870078
 30
0.0
 11
1.543557738
 21
4.260870078
 31
0.0
  0
LINE
  5
3CE
330
1F
100
AcDbEntity
  8
0
  6
Continuous
 62
     7
370
    30
100
AcDbLine
 10
1.543557738
 20
4.5640512889
 30
0.0
 11
1.4215577074
 21
4.5640512889
 31
0.0
  0
LINE
  5
3CF
330
1F
100
AcDbEntity
  8
0
  6
Continuous
 62
     7
370
    30
100
AcDbLine
 10
1.5655577772
 20
4.551349589
 30
0.0
 11
1.3995576682
 21
4.551349589
 31
0.0
  0
LINE
  5
3D0
330
1F
100
AcDbEntity
  8
0
  6
Continuous
 62
     7
370
    30
100
AcDbLine
 10
1.543557738
 20
4.4529401791
 30
0.0
 11
1.4215577074
 21
4.4529401791
 31
0.0
  0
LINE
  5
3D1
330
1F
100
AcDbEntity
  8
0
  6
Continuous
 62
     7
370
    30
100
AcDbLine
 10
1.5655577772
 20
4.7735718085
 30
0.0
 11
1.3995576682
 21
4.7735718085
 31
0.0
  0
LINE
  5
3D2
330
1F
100
AcDbEntity
  8
0
  6
Continuous
 62
     7
370
    30
100
AcDbLine
 10
1.4215577074
 20
4.7608700902
 30
0.0
 11
1.543557738
 21
4.7608700902
 31
0.0
  0
LINE
  5
3D3
330
1F
100
AcDbEntity
  8
0
  6
Continuous
 62
     7
370
    30
100
AcDbLine
 10
1.543557738
 20
4.2862734778
 30
0.0
 11
1.4215577074
 21
4.2862734778
 31
0.0
  0
LINE
  5
3D4
330
1F
100
AcDbEntity
  8
0
  6
Continuous
 62
     7
370
    30
100
AcDbLine
 10
1.543557738
 20
4.7307179536
 30
0.0
 11
1.4215577074
 21
4.7307179536
 31
0.0
  0
LINE
  5
3D5
330
1F
100
AcDbEntity
  8
0
  6
Continuous
 62
     7
370
    30
100
AcDbLine
 10
1.5655577772
 20
4.7180162536
 30
0.0
 11
1.3995576682
 21
4.7180162536
 31
0.0
  0
LINE
  5
3D6
330
1F
100
AcDbEntity
  8
0
  6
Continuous
 62
     7
370
    30
100
AcDbLine
 10
1.543557738
 20
4.7862735084
 30
0.0
 11
1.4215577074
 21
4.7862735084
 31
0.0
  0
LINE
  5
3D7
330
1F
100
AcDbEntity
  8
0
  6
Continuous
 62
     7
370
    30
100
AcDbLine
 10
1.543557738
 20
4.8973846228
 30
0.0
 11
1.4215577074
 21
4.8973846228
 31
0.0
  0
LINE
  5
3D8
330
1F
100
AcDbEntity
  8
0
  6
Continuous
 62
     7
370
    30
100
AcDbLine
 10
1.5655577772
 20
4.8846829183
 30
0.0
 11
1.3995576682
 21
4.8846829183
 31
0.0
  0
LINE
  5
3D9
330
1F
100
AcDbEntity
  8
0
  6
Continuous
 62
     7
370
    30
100
AcDbLine
 10
1.4215577074
 20
4.8719812092
 30
0.0
 11
1.543557738
 21
4.8719812092
 31
0.0
  0
LINE
  5
3DA
330
1F
100
AcDbEntity
  8
0
  6
Continuous
 62
     7
370
    30
100
AcDbLine
 10
1.543557738
 20
4.508495734
 30
0.0
 11
1.4215577074
 21
4.508495734
 31
0.0
  0
LINE
  5
3DB
330
1F
100
AcDbEntity
  8
0
  6
Continuous
 62
     7
370
    30
100
AcDbLine
 10
1.5655577772
 20
4.4957940341
 30
0.0
 11
1.3995576682
 21
4.4957940341
 31
0.0
  0
LINE
  5
3DC
330
1F
100
AcDbEntity
  8
0
  6
Continuous
 62
     7
370
    30
100
AcDbLine
 10
1.5655577772
 20
4.1624606681
 30
0.0
 11
1.3995576682
 21
4.1624606681
 31
0.0
  0
LINE
  5
3DD
330
1F
100
AcDbEntity
  8
0
  6
Continuous
 62
     7
370
    30
100
AcDbLine
 10
1.4215577074
 20
4.1497589682
 30
0.0
 11
1.543557738
 21
4.1497589682
 31
0.0
  0
LINE
  5
3DE
330
1F
100
AcDbEntity
  8
0
  6
Continuous
 62
     7
370
    30
100
AcDbLine
 10
1.5655577772
 20
4.2180162597
 30
0.0
 11
1.3995576682
 21
4.2180162597
 31
0.0
  0
LINE
  5
3DF
330
1F
100
AcDbEntity
  8
0
  6
Continuous
 62
     7
370
    30
100
AcDbLine
 10
1.4215577074
 20
4.2053145597
 30
0.0
 11
1.543557738
 21
4.2053145597
 31
0.0
  0
LINE
  5
3E0
330
1F
100
AcDbEntity
  8
0
  6
Continuous
 62
     7
370
    30
100
AcDbLine
 10
1.5655577772
 20
3.9957940401
 30
0.0
 11
1.3995576682
 21
3.9957940401
 31
0.0
  0
LINE
  5
3E1
330
1F
100
AcDbEntity
  8
0
  6
Continuous
 62
     7
370
    30
100
AcDbLine
 10
1.4215577074
 20
3.9830923402
 30
0.0
 11
1.543557738
 21
3.9830923402
 31
0.0
  0
LINE
  5
3E2
330
1F
100
AcDbEntity
  8
0
  6
Continuous
 62
     7
370
    30
100
AcDbLine
 10
1.4215577074
 20
4.4830923342
 30
0.0
 11
1.543557738
 21
4.4830923342
 31
0.0
  0
LINE
  5
3E3
330
1F
100
AcDbEntity
  8
0
  6
Continuous
 62
     7
370
    30
100
AcDbLine
 10
1.543557738
 20
4.6751623987
 30
0.0
 11
1.4215577074
 21
4.6751623987
 31
0.0
  0
LINE
  5
3E4
330
1F
100
AcDbEntity
  8
0
  6
Continuous
 62
     7
370
    30
100
AcDbLine
 10
1.5655577772
 20
4.6624606987
 30
0.0
 11
1.3995576682
 21
4.6624606987
 31
0.0
  0
LINE
  5
3E5
330
1F
100
AcDbEntity
  8
0
  6
Continuous
 62
     7
370
    30
100
AcDbLine
 10
1.4215577074
 20
4.8164256543
 30
0.0
 11
1.543557738
 21
4.8164256543
 31
0.0
  0
LINE
  5
3E6
330
1F
100
AcDbEntity
  8
0
  6
Continuous
 62
     7
370
    30
100
AcDbLine
 10
1.543557738
 20
3.8973846303
 30
0.0
 11
1.4215577074
 21
3.8973846303
 31
0.0
  0
LINE
  5
3E7
330
1F
100
AcDbEntity
  8
0
  6
Continuous
 62
     7
370
    30
100
AcDbLine
 10
1.5655577772
 20
3.8846829304
 30
0.0
 11
1.3995576682
 21
3.8846829304
 31
0.0
  0
LINE
  5
3E8
330
1F
100
AcDbEntity
  8
0
  6
Continuous
 62
     7
370
    30
100
AcDbLine
 10
1.4215577074
 20
4.538647889
 30
0.0
 11
1.543557738
 21
4.538647889
 31
0.0
  0
LINE
  5
3E9
330
1F
100
AcDbEntity
  8
0
  6
Continuous
 62
     7
370
    30
100
AcDbLine
 10
1.543557738
 20
4.9529401777
 30
0.0
 11
1.4215577074
 21
4.9529401777
 31
0.0
  0
LINE
  5
3EA
330
1F
100
AcDbEntity
  8
0
  6
Continuous
 62
     7
370
    30
100
AcDbLine
 10
1.5655577772
 20
4.940238472
 30
0.0
 11
1.3995576682
 21
4.940238472
 31
0.0
  0
LINE
  5
3EB
330
1F
100
AcDbEntity
  8
0
  6
Continuous
 62
     7
370
    30
100
AcDbLine
 10
1.543557738
 20
4.2307179596
 30
0.0
 11
1.4215577074
 21
4.2307179596
 31
0.0
  0
LINE
  5
3EC
330
1F
100
AcDbEntity
  8
0
  6
Continuous
 62
     7
370
    30
100
AcDbLine
 10
1.543557738
 20
4.0640512583
 30
0.0
 11
1.4215577074
 21
4.0640512583
 31
0.0
  0
LINE
  5
3ED
330
1F
100
AcDbEntity
  8
0
  6
Continuous
 62
     7
370
    30
100
AcDbLine
 10
1.5655577772
 20
4.0513495584
 30
0.0
 11
1.3995576682
 21
4.0513495584
 31
0.0
  0
LINE
  5
3EE
330
1F
100
AcDbEntity
  8
0
  6
Continuous
 62
     7
370
    30
100
AcDbLine
 10
1.4215577074
 20
4.7053145354
 30
0.0
 11
1.543557738
 21
4.7053145354
 31
0.0
  0
LINE
  5
3EF
330
1F
100
AcDbEntity
  8
0
  6
Continuous
 62
     7
370
    30
100
AcDbLine
 10
1.5655577772
 20
3.9402384486
 30
0.0
 11
1.3995576682
 21
3.9402384486
 31
0.0
  0
LINE
  5
3F0
330
1F
100
AcDbEntity
  8
0
  6
Continuous
 62
     7
370
    30
100
AcDbLine
 10
1.4215577074
 20
3.9275367486
 30
0.0
 11
1.543557738
 21
3.9275367486
 31
0.0
  0
LINE
  5
3F1
330
1F
100
AcDbEntity
  8
0
  6
Continuous
 62
     7
370
    30
100
AcDbLine
 10
1.4215577074
 20
4.6497589805
 30
0.0
 11
1.543557738
 21
4.6497589805
 31
0.0
  0
LINE
  5
3F2
330
1F
100
AcDbEntity
  8
0
  6
Continuous
 62
     7
370
    30
100
AcDbLine
 10
1.4215577074
 20
4.9275367664
 30
0.0
 11
1.543557738
 21
4.9275367664
 31
0.0
  0
LINE
  5
3F3
330
1F
100
AcDbEntity
  8
0
  6
Continuous
 62
     7
370
    30
100
AcDbLine
 10
1.543557738
 20
4.1751623681
 30
0.0
 11
1.4215577074
 21
4.1751623681
 31
0.0
  0
LINE
  5
3F4
330
1F
100
AcDbEntity
  8
0
  6
Continuous
 62
     7
370
    30
100
AcDbLine
 10
1.543557738
 20
4.1196068498
 30
0.0
 11
1.4215577074
 21
4.1196068498
 31
0.0
  0
LINE
  5
3F5
330
1F
100
AcDbEntity
  8
0
  6
Continuous
 62
     7
370
    30
100
AcDbLine
 10
1.5655577772
 20
4.1069051499
 30
0.0
 11
1.3995576682
 21
4.1069051499
 31
0.0
  0
LINE
  5
3F6
330
1F
100
AcDbEntity
  8
0
  6
Continuous
 62
     7
370
    30
100
AcDbLine
 10
1.4215577074
 20
4.09420345
 30
0.0
 11
1.543557738
 21
4.09420345
 31
0.0
  0
LINE
  5
3F7
330
1F
100
AcDbEntity
  8
0
  6
Continuous
 62
     7
370
    30
100
AcDbLine
 10
1.543557738
 20
3.9529401485
 30
0.0
 11
1.4215577074
 21
3.9529401485
 31
0.0
  0
LINE
  5
3F8
330
1F
100
AcDbEntity
  8
0
  6
Continuous
 62
     7
370
    30
100
AcDbLine
 10
1.4215577074
 20
4.0386478584
 30
0.0
 11
1.543557738
 21
4.0386478584
 31
0.0
  0
LINE
  5
3F9
330
1F
100
AcDbEntity
  8
0
  6
Continuous
 62
     7
370
    30
100
AcDbLine
 10
1.543557738
 20
4.0084957401
 30
0.0
 11
1.4215577074
 21
4.0084957401
 31
0.0
  0
LINE
  5
3FA
330
1F
100
AcDbEntity
  8
0
  6
Continuous
 62
     7
370
    30
100
AcDbLine
 10
1.4825577227
 20
5.1166272105
 30
0.0
 11
1.4215577074
 21
5.1166272105
 31
0.0
  0
LINE
  5
3FB
330
1F
100
AcDbEntity
  8
0
  6
Continuous
 62
     7
370
    30
100
AcDbLine
 10
1.543557738
 20
5.1166272105
 30
0.0
 11
1.4825577227
 21
5.1166272105
 31
0.0
  0
LINE
  5
3FC
330
1F
100
AcDbEntity
  8
0
  6
Continuous
 62
     7
370
    30
100
AcDbLine
 10
9.4269094155
 20
3.8762257147
 30
0.0
 11
9.2902059281
 21
3.8762257147
 31
0.0
  0
LINE
  5
3FD
330
1F
100
AcDbEntity
  8
0
  6
Continuous
 62
     7
370
    30
100
AcDbLine
 10
9.4195576871
 20
4.7307179536
 30
0.0
 11
9.2975576565
 21
4.7307179536
 31
0.0
  0
LINE
  5
3FE
330
1F
100
AcDbEntity
  8
0
  6
Continuous
 62
     7
370
    30
100
AcDbLine
 10
9.4415577263
 20
4.7180162536
 30
0.0
 11
9.2755576173
 21
4.7180162536
 31
0.0
  0
LINE
  5
3FF
330
1F
100
AcDbEntity
  8
0
  6
Continuous
 62
     7
370
    30
100
AcDbLine
 10
9.4415577263
 20
4.6624606987
 30
0.0
 11
9.2755576173
 21
4.6624606987
 31
0.0
  0
LINE
  5
400
330
1F
100
AcDbEntity
  8
0
  6
Continuous
 62
     7
370
    30
100
AcDbLine
 10
9.2975576565
 20
4.6497589805
 30
0.0
 11
9.4195576871
 21
4.6497589805
 31
0.0
  0
LINE
  5
401
330
1F
100
AcDbEntity
  8
0
  6
Continuous
 62
     7
370
    30
100
AcDbLine
 10
9.4415577263
 20
4.8846829183
 30
0.0
 11
9.2755576173
 21
4.8846829183
 31
0.0
  0
LINE
  5
402
330
1F
100
AcDbEntity
  8
0
  6
Continuous
 62
     7
370
    30
100
AcDbLine
 10
9.2975576565
 20
4.8719812092
 30
0.0
 11
9.4195576871
 21
4.8719812092
 31
0.0
  0
LINE
  5
403
330
1F
100
AcDbEntity
  8
0
  6
Continuous
 62
     7
370
    30
100
AcDbLine
 10
9.4415577263
 20
4.7735718085
 30
0.0
 11
9.2755576173
 21
4.7735718085
 31
0.0
  0
LINE
  5
404
330
1F
100
AcDbEntity
  8
0
  6
Continuous
 62
     7
370
    30
100
AcDbLine
 10
9.2975576565
 20
4.7608700902
 30
0.0
 11
9.4195576871
 21
4.7608700902
 31
0.0
  0
LINE
  5
405
330
1F
100
AcDbEntity
  8
0
  6
Continuous
 62
     7
370
    30
100
AcDbLine
 10
9.4195576871
 20
4.6196068438
 30
0.0
 11
9.2975576565
 21
4.6196068438
 31
0.0
  0
LINE
  5
406
330
1F
100
AcDbEntity
  8
0
  6
Continuous
 62
     7
370
    30
100
AcDbLine
 10
9.4415577263
 20
4.6069051439
 30
0.0
 11
9.2755576173
 21
4.6069051439
 31
0.0
  0
LINE
  5
407
330
1F
100
AcDbEntity
  8
0
  6
Continuous
 62
     7
370
    30
100
AcDbLine
 10
9.4415577263
 20
4.8291273634
 30
0.0
 11
9.2755576173
 21
4.8291273634
 31
0.0
  0
LINE
  5
408
330
1F
100
AcDbEntity
  8
0
  6
Continuous
 62
     7
370
    30
100
AcDbLine
 10
9.2975576565
 20
4.8164256543
 30
0.0
 11
9.4195576871
 21
4.8164256543
 31
0.0
  0
LINE
  5
409
330
1F
100
AcDbEntity
  8
0
  6
Continuous
 62
     7
370
    30
100
AcDbLine
 10
9.4195576871
 20
4.6751623987
 30
0.0
 11
9.2975576565
 21
4.6751623987
 31
0.0
  0
LINE
  5
40A
330
1F
100
AcDbEntity
  8
0
  6
Continuous
 62
     7
370
    30
100
AcDbLine
 10
9.4195576871
 20
3.9529401485
 30
0.0
 11
9.2975576565
 21
3.9529401485
 31
0.0
  0
LINE
  5
40B
330
1F
100
AcDbEntity
  8
0
  6
Continuous
 62
     7
370
    30
100
AcDbLine
 10
9.4415577263
 20
3.9402384486
 30
0.0
 11
9.2755576173
 21
3.9402384486
 31
0.0
  0
LINE
  5
40C
330
1F
100
AcDbEntity
  8
0
  6
Continuous
 62
     7
370
    30
100
AcDbLine
 10
9.2975576565
 20
4.7053145354
 30
0.0
 11
9.4195576871
 21
4.7053145354
 31
0.0
  0
LINE
  5
40D
330
1F
100
AcDbEntity
  8
0
  6
Continuous
 62
     7
370
    30
100
AcDbLine
 10
9.4195576871
 20
4.7862735084
 30
0.0
 11
9.2975576565
 21
4.7862735084
 31
0.0
  0
LINE
  5
40E
330
1F
100
AcDbEntity
  8
0
  6
Continuous
 62
     7
370
    30
100
AcDbLine
 10
9.4415577263
 20
4.940238472
 30
0.0
 11
9.2755576173
 21
4.940238472
 31
0.0
  0
LINE
  5
40F
330
1F
100
AcDbEntity
  8
0
  6
Continuous
 62
     7
370
    30
100
AcDbLine
 10
9.2975576565
 20
4.9275367664
 30
0.0
 11
9.4195576871
 21
4.9275367664
 31
0.0
  0
LINE
  5
410
330
1F
100
AcDbEntity
  8
0
  6
Continuous
 62
     7
370
    30
100
AcDbLine
 10
9.4195576871
 20
4.0084957401
 30
0.0
 11
9.2975576565
 21
4.0084957401
 31
0.0
  0
LINE
  5
411
330
1F
100
AcDbEntity
  8
0
  6
Continuous
 62
     7
370
    30
100
AcDbLine
 10
9.4415577263
 20
3.9957940401
 30
0.0
 11
9.2755576173
 21
3.9957940401
 31
0.0
  0
LINE
  5
412
330
1F
100
AcDbEntity
  8
0
  6
Continuous
 62
     7
370
    30
100
AcDbLine
 10
9.4195576871
 20
4.0640512583
 30
0.0
 11
9.2975576565
 21
4.0640512583
 31
0.0
  0
LINE
  5
413
330
1F
100
AcDbEntity
  8
0
  6
Continuous
 62
     7
370
    30
100
AcDbLine
 10
9.4415577263
 20
4.0513495584
 30
0.0
 11
9.2755576173
 21
4.0513495584
 31
0.0
  0
LINE
  5
414
330
1F
100
AcDbEntity
  8
0
  6
Continuous
 62
     7
370
    30
100
AcDbLine
 10
9.4415577263
 20
4.1624606681
 30
0.0
 11
9.2755576173
 21
4.1624606681
 31
0.0
  0
LINE
  5
415
330
1F
100
AcDbEntity
  8
0
  6
Continuous
 62
     7
370
    30
100
AcDbLine
 10
9.2975576565
 20
4.1497589682
 30
0.0
 11
9.4195576871
 21
4.1497589682
 31
0.0
  0
LINE
  5
416
330
1F
100
AcDbEntity
  8
0
  6
Continuous
 62
     7
370
    30
100
AcDbLine
 10
9.4195576871
 20
4.1751623681
 30
0.0
 11
9.2975576565
 21
4.1751623681
 31
0.0
  0
LINE
  5
417
330
1F
100
AcDbEntity
  8
0
  6
Continuous
 62
     7
370
    30
100
AcDbLine
 10
9.4195576871
 20
4.2307179596
 30
0.0
 11
9.2975576565
 21
4.2307179596
 31
0.0
  0
LINE
  5
418
330
1F
100
AcDbEntity
  8
0
  6
Continuous
 62
     7
370
    30
100
AcDbLine
 10
9.4415577263
 20
4.2180162597
 30
0.0
 11
9.2755576173
 21
4.2180162597
 31
0.0
  0
LINE
  5
419
330
1F
100
AcDbEntity
  8
0
  6
Continuous
 62
     7
370
    30
100
AcDbLine
 10
9.4195576871
 20
4.2862734778
 30
0.0
 11
9.2975576565
 21
4.2862734778
 31
0.0
  0
LINE
  5
41A
330
1F
100
AcDbEntity
  8
0
  6
Continuous
 62
     7
370
    30
100
AcDbLine
 10
9.4415577263
 20
4.2735717779
 30
0.0
 11
9.2755576173
 21
4.2735717779
 31
0.0
  0
LINE
  5
41B
330
1F
100
AcDbEntity
  8
0
  6
Continuous
 62
     7
370
    30
100
AcDbLine
 10
9.4195576871
 20
4.8973846228
 30
0.0
 11
9.2975576565
 21
4.8973846228
 31
0.0
  0
LINE
  5
41C
330
1F
100
AcDbEntity
  8
0
  6
Continuous
 62
     7
370
    30
100
AcDbLine
 10
9.4195576871
 20
4.8418290633
 30
0.0
 11
9.2975576565
 21
4.8418290633
 31
0.0
  0
LINE
  5
41D
330
1F
100
AcDbEntity
  8
0
  6
Continuous
 62
     7
370
    30
100
AcDbLine
 10
9.2975576565
 20
3.9830923402
 30
0.0
 11
9.4195576871
 21
3.9830923402
 31
0.0
  0
LINE
  5
41E
330
1F
100
AcDbEntity
  8
0
  6
Continuous
 62
     7
370
    30
100
AcDbLine
 10
9.2975576565
 20
4.2053145597
 30
0.0
 11
9.4195576871
 21
4.2053145597
 31
0.0
  0
LINE
  5
41F
330
1F
100
AcDbEntity
  8
0
  6
Continuous
 62
     7
370
    30
100
AcDbLine
 10
9.2975576565
 20
4.5942034439
 30
0.0
 11
9.4195576871
 21
4.5942034439
 31
0.0
  0
LINE
  5
420
330
1F
100
AcDbEntity
  8
0
  6
Continuous
 62
     7
370
    30
100
AcDbLine
 10
9.4195576871
 20
4.1196068498
 30
0.0
 11
9.2975576565
 21
4.1196068498
 31
0.0
  0
LINE
  5
421
330
1F
100
AcDbEntity
  8
0
  6
Continuous
 62
     7
370
    30
100
AcDbLine
 10
9.4415577263
 20
4.1069051499
 30
0.0
 11
9.2755576173
 21
4.1069051499
 31
0.0
  0
LINE
  5
422
330
1F
100
AcDbEntity
  8
0
  6
Continuous
 62
     7
370
    30
100
AcDbLine
 10
9.2975576565
 20
4.09420345
 30
0.0
 11
9.4195576871
 21
4.09420345
 31
0.0
  0
LINE
  5
423
330
1F
100
AcDbEntity
  8
0
  6
Continuous
 62
     7
370
    30
100
AcDbLine
 10
9.2975576565
 20
4.0386478584
 30
0.0
 11
9.4195576871
 21
4.0386478584
 31
0.0
  0
LINE
  5
424
330
1F
100
AcDbEntity
  8
0
  6
Continuous
 62
     7
370
    30
100
AcDbLine
 10
9.2975576565
 20
3.9275367486
 30
0.0
 11
9.4195576871
 21
3.9275367486
 31
0.0
  0
LINE
  5
425
330
1F
100
AcDbEntity
  8
0
  6
Continuous
 62
     7
370
    30
100
AcDbLine
 10
9.4415577263
 20
4.3846829243
 30
0.0
 11
9.2755576173
 21
4.3846829243
 31
0.0
  0
LINE
  5
426
330
1F
100
AcDbEntity
  8
0
  6
Continuous
 62
     7
370
    30
100
AcDbLine
 10
9.2975576565
 20
4.3719812244
 30
0.0
 11
9.4195576871
 21
4.3719812244
 31
0.0
  0
LINE
  5
427
330
1F
100
AcDbEntity
  8
0
  6
Continuous
 62
     7
370
    30
100
AcDbLine
 10
9.4195576871
 20
4.4529401791
 30
0.0
 11
9.2975576565
 21
4.4529401791
 31
0.0
  0
LINE
  5
428
330
1F
100
AcDbEntity
  8
0
  6
Continuous
 62
     7
370
    30
100
AcDbLine
 10
9.4415577263
 20
4.4402384792
 30
0.0
 11
9.2755576173
 21
4.4402384792
 31
0.0
  0
LINE
  5
429
330
1F
100
AcDbEntity
  8
0
  6
Continuous
 62
     7
370
    30
100
AcDbLine
 10
9.4415577263
 20
4.551349589
 30
0.0
 11
9.2755576173
 21
4.551349589
 31
0.0
  0
LINE
  5
42A
330
1F
100
AcDbEntity
  8
0
  6
Continuous
 62
     7
370
    30
100
AcDbLine
 10
9.2975576565
 20
4.538647889
 30
0.0
 11
9.4195576871
 21
4.538647889
 31
0.0
  0
LINE
  5
42B
330
1F
100
AcDbEntity
  8
0
  6
Continuous
 62
     7
370
    30
100
AcDbLine
 10
9.4195576871
 20
4.5640512889
 30
0.0
 11
9.2975576565
 21
4.5640512889
 31
0.0
  0
LINE
  5
42C
330
1F
100
AcDbEntity
  8
0
  6
Continuous
 62
     7
370
    30
100
AcDbLine
 10
9.4415577263
 20
3.8846829304
 30
0.0
 11
9.2755576173
 21
3.8846829304
 31
0.0
  0
LINE
  5
42D
330
1F
100
AcDbEntity
  8
0
  6
Continuous
 62
     7
370
    30
100
AcDbLine
 10
9.4195576871
 20
4.3418290694
 30
0.0
 11
9.2975576565
 21
4.3418290694
 31
0.0
  0
LINE
  5
42E
330
1F
100
AcDbEntity
  8
0
  6
Continuous
 62
     7
370
    30
100
AcDbLine
 10
9.4415577263
 20
4.3291273694
 30
0.0
 11
9.2755576173
 21
4.3291273694
 31
0.0
  0
LINE
  5
42F
330
1F
100
AcDbEntity
  8
0
  6
Continuous
 62
     7
370
    30
100
AcDbLine
 10
9.2975576565
 20
4.4275367793
 30
0.0
 11
9.4195576871
 21
4.4275367793
 31
0.0
  0
LINE
  5
430
330
1F
100
AcDbEntity
  8
0
  6
Continuous
 62
     7
370
    30
100
AcDbLine
 10
9.4195576871
 20
4.9529401777
 30
0.0
 11
9.2975576565
 21
4.9529401777
 31
0.0
  0
LINE
  5
431
330
1F
100
AcDbEntity
  8
0
  6
Continuous
 62
     7
370
    30
100
AcDbLine
 10
9.4195576871
 20
3.8973846303
 30
0.0
 11
9.2975576565
 21
3.8973846303
 31
0.0
  0
LINE
  5
432
330
1F
100
AcDbEntity
  8
0
  6
Continuous
 62
     7
370
    30
100
AcDbLine
 10
9.4195576871
 20
4.3973846243
 30
0.0
 11
9.2975576565
 21
4.3973846243
 31
0.0
  0
LINE
  5
433
330
1F
100
AcDbEntity
  8
0
  6
Continuous
 62
     7
370
    30
100
AcDbLine
 10
9.4415577263
 20
4.4957940341
 30
0.0
 11
9.2755576173
 21
4.4957940341
 31
0.0
  0
LINE
  5
434
330
1F
100
AcDbEntity
  8
0
  6
Continuous
 62
     7
370
    30
100
AcDbLine
 10
9.2975576565
 20
4.4830923342
 30
0.0
 11
9.4195576871
 21
4.4830923342
 31
0.0
  0
LINE
  5
435
330
1F
100
AcDbEntity
  8
0
  6
Continuous
 62
     7
370
    30
100
AcDbLine
 10
9.2975576565
 20
4.3164256695
 30
0.0
 11
9.4195576871
 21
4.3164256695
 31
0.0
  0
LINE
  5
436
330
1F
100
AcDbEntity
  8
0
  6
Continuous
 62
     7
370
    30
100
AcDbLine
 10
9.4195576871
 20
4.508495734
 30
0.0
 11
9.2975576565
 21
4.508495734
 31
0.0
  0
LINE
  5
437
330
1F
100
AcDbEntity
  8
0
  6
Continuous
 62
     7
370
    30
100
AcDbLine
 10
9.2975576565
 20
4.260870078
 30
0.0
 11
9.4195576871
 21
4.260870078
 31
0.0
  0
LINE
  5
438
330
1F
100
AcDbEntity
  8
0
  6
Continuous
 62
     7
370
    30
100
AcDbLine
 10
9.3585576718
 20
5.1166272105
 30
0.0
 11
9.2975576565
 21
5.1166272105
 31
0.0
  0
LINE
  5
439
330
1F
100
AcDbEntity
  8
0
  6
Continuous
 62
     7
370
    30
100
AcDbLine
 10
9.4195576871
 20
5.1166272105
 30
0.0
 11
9.3585576718
 21
5.1166272105
 31
0.0
  0
LINE
  5
43A
330
1F
100
AcDbEntity
  8
0
  6
Continuous
 62
     7
370
    30
100
AcDbLine
 10
3.2955576588
 20
3.7638942057
 30
0.0
 11
3.2955576588
 21
3.8138942015
 31
0.0
  0
LINE
  5
43B
330
1F
100
AcDbEntity
  8
0
  6
Continuous
 62
     7
370
    30
100
AcDbLine
 10
3.6455576289
 20
5.5758942533
 30
0.0
 11
3.6955576246
 21
5.5758942533
 31
0.0
  0
LINE
  5
43C
330
1F
100
AcDbEntity
  8
0
  6
Continuous
 62
     7
370
    30
100
AcDbLine
 10
4.0455577414
 20
3.7638942057
 30
0.0
 11
4.0455577414
 21
3.8138942015
 31
0.0
  0
LINE
  5
43D
330
1F
100
AcDbEntity
  8
0
  6
Continuous
 62
     7
370
    30
100
AcDbLine
 10
3.2955576588
 20
3.7638942057
 30
0.0
 11
4.0455577414
 21
3.7638942057
 31
0.0
  0
LINE
  5
43E
330
1F
100
AcDbEntity
  8
0
  6
Continuous
 62
     7
370
    30
100
AcDbLine
 10
3.5459660993
 20
3.8138942015
 30
0.0
 11
3.2955576588
 21
3.8138942015
 31
0.0
  0
ARC
  5
43F
330
1F
100
AcDbEntity
  8
0
  6
Continuous
 62
     7
370
    30
100
AcDbCircle
 10
3.5459661145
 20
3.8388942334
 30
0.0
 40
0.0250000000000001
100
AcDbArc
 50
270.0
 51
21.86614513
  0
LINE
  5
440
330
1F
100
AcDbEntity
  8
0
  6
Continuous
 62
     7
370
    30
100
AcDbLine
 10
3.6455576289
 20
4.836406401
 30
0.0
 11
3.6455576289
 21
3.9952453665
 31
0.0
  0
ARC
  5
441
330
1F
100
AcDbEntity
  8
0
  6
Continuous
 62
     7
370
    30
100
AcDbCircle
 10
3.5705576972
 20
4.8364063988
 30
0.0
 40
0.0749999999999997
100
AcDbArc
 50
0.0
 51
83.3002348222
  0
ARC
  5
442
330
1F
100
AcDbEntity
  8
0
  6
Continuous
 62
     7
370
    30
100
AcDbCircle
 10
3.5845576972
 20
4.9555869341
 30
0.0
 40
0.0450000000000003
100
AcDbArc
 50
180.0
 51
263.3002348222
  0
LINE
  5
443
330
1F
100
AcDbEntity
  8
0
  6
Continuous
 62
     7
370
    30
100
AcDbLine
 10
3.53955772
 20
5.0308942376
 30
0.0
 11
3.53955772
 21
4.9555869342
 31
0.0
  0
ARC
  5
444
330
1F
100
AcDbEntity
  8
0
  6
Continuous
 62
     7
370
    30
100
AcDbCircle
 10
3.5495576972
 20
5.0308942334
 30
0.0
 40
0.0099999999999998
100
AcDbArc
 50
90.0
 51
180.0
  0
LINE
  5
445
330
1F
100
AcDbEntity
  8
0
  6
Continuous
 62
     7
370
    30
100
AcDbLine
 10
3.5559937302
 20
5.0408942312
 30
0.0
 11
3.5495576312
 21
5.0408942312
 31
0.0
  0
LINE
  5
446
330
1F
100
AcDbEntity
  8
0
  6
Continuous
 62
     7
370
    30
100
AcDbLine
 10
3.5895577158
 20
5.0008942337
 30
0.0
 11
3.5559937302
 21
5.0408942312
 31
0.0
  0
ARC
  5
447
330
1F
100
AcDbEntity
  8
0
  6
Continuous
 62
     7
370
    30
100
AcDbCircle
 10
3.6705576972
 20
3.8888942334
 30
0.0
 40
0.10925
100
AcDbArc
 50
103.2283724921
 51
201.86614513
  0
LINE
  5
448
330
1F
100
AcDbEntity
  8
0
  6
Continuous
 62
     7
370
    30
100
AcDbLine
 10
3.6455576289
 20
4.9508942334
 30
0.0
 11
3.580741391
 21
4.9508942334
 31
0.0
  0
LINE
  5
449
330
1F
100
AcDbEntity
  8
0
  6
Continuous
 62
     7
370
    30
100
AcDbLine
 10
3.7603740092
 20
4.9508942334
 30
0.0
 11
3.6955576246
 21
4.9508942334
 31
0.0
  0
LINE
  5
44A
330
1F
100
AcDbEntity
  8
0
  6
Continuous
 62
     7
370
    30
100
AcDbLine
 10
3.7515576843
 20
5.0008942337
 30
0.0
 11
3.7603740092
 21
4.9508942334
 31
0.0
  0
LINE
  5
44B
330
1F
100
AcDbEntity
  8
0
  6
Continuous
 62
     7
370
    30
100
AcDbLine
 10
3.7851216699
 20
5.0408942312
 30
0.0
 11
3.7515576843
 21
5.0008942337
 31
0.0
  0
LINE
  5
44C
330
1F
100
AcDbEntity
  8
0
  6
Continuous
 62
     7
370
    30
100
AcDbLine
 10
3.7915577689
 20
5.0408942312
 30
0.0
 11
3.7851216699
 21
5.0408942312
 31
0.0
  0
ARC
  5
44D
330
1F
100
AcDbEntity
  8
0
  6
Continuous
 62
     7
370
    30
100
AcDbCircle
 10
3.7915576972
 20
5.0308942334
 30
0.0
 40
0.0100000000000002
100
AcDbArc
 50
0.0
 51
90.0
  0
LINE
  5
44E
330
1F
100
AcDbEntity
  8
0
  6
Continuous
 62
     7
370
    30
100
AcDbLine
 10
3.8015576801
 20
4.9555869342
 30
0.0
 11
3.8015576801
 21
5.0308942376
 31
0.0
  0
ARC
  5
44F
330
1F
100
AcDbEntity
  8
0
  6
Continuous
 62
     7
370
    30
100
AcDbCircle
 10
3.7565576972
 20
4.9555869341
 30
0.0
 40
0.0450000000000003
100
AcDbArc
 50
276.6997651778
 51
0.0
  0
ARC
  5
450
330
1F
100
AcDbEntity
  8
0
  6
Continuous
 62
     7
370
    30
100
AcDbCircle
 10
3.7705576972
 20
4.8364063988
 30
0.0
 40
0.0749999999999997
100
AcDbArc
 50
96.6997651778
 51
180.0
  0
LINE
  5
451
330
1F
100
AcDbEntity
  8
0
  6
Continuous
 62
     7
370
    30
100
AcDbLine
 10
3.6955576246
 20
3.9481442039
 30
0.0
 11
3.6955576246
 21
4.836406401
 31
0.0
  0
LINE
  5
452
330
1F
100
AcDbEntity
  8
0
  6
Continuous
 62
     7
370
    30
100
AcDbLine
 10
3.6705577001
 20
3.9481442039
 30
0.0
 11
3.6955576246
 21
3.9481442039
 31
0.0
  0
ARC
  5
453
330
1F
100
AcDbEntity
  8
0
  6
Continuous
 62
     7
370
    30
100
AcDbCircle
 10
3.6705576972
 20
3.8888942334
 30
0.0
 40
0.0592500000000005
100
AcDbArc
 50
90.0
 51
346.9332707857
  0
ARC
  5
454
330
1F
100
AcDbEntity
  8
0
  6
Continuous
 62
     7
370
    30
100
AcDbCircle
 10
3.752626247
 20
3.8698465135
 30
0.0
 40
0.0250000000000002
100
AcDbArc
 50
346.9332707857
 51
166.9332707857
  0
ARC
  5
455
330
1F
100
AcDbEntity
  8
0
  6
Continuous
 62
     7
370
    30
100
AcDbCircle
 10
3.6705576972
 20
3.8888942334
 30
0.0
 40
0.1092500000000001
100
AcDbArc
 50
338.13385487
 51
346.9332707857
  0
ARC
  5
456
330
1F
100
AcDbEntity
  8
0
  6
Continuous
 62
     7
370
    30
100
AcDbCircle
 10
3.79514928
 20
3.8388942334
 30
0.0
 40
0.0250000000000001
100
AcDbArc
 50
158.13385487
 51
270.0
  0
LINE
  5
457
330
1F
100
AcDbEntity
  8
0
  6
Continuous
 62
     7
370
    30
100
AcDbLine
 10
3.6955576246
 20
4.9508942334
 30
0.0
 11
3.6955576246
 21
5.5758942533
 31
0.0
  0
LINE
  5
458
330
1F
100
AcDbEntity
  8
0
  6
Continuous
 62
     7
370
    30
100
AcDbLine
 10
3.6455576289
 20
5.5758942533
 30
0.0
 11
3.6455576289
 21
4.9508942334
 31
0.0
  0
LINE
  5
459
330
1F
100
AcDbEntity
  8
0
  6
Continuous
 62
     7
370
    30
100
AcDbLine
 10
4.0455577414
 20
3.8138942015
 30
0.0
 11
3.7951493008
 21
3.8138942015
 31
0.0
  0
LINE
  5
45A
330
1F
100
AcDbEntity
  8
0
  6
Continuous
 62
     7
370
    30
100
AcDbLine
 10
3.580741391
 20
4.9508942334
 30
0.0
 11
3.5895577158
 21
5.0008942337
 31
0.0
  0
LINE
  5
45B
330
1F
100
AcDbEntity
  8
0
  6
Continuous
 62
     7
370
    30
100
AcDbLine
 10
5.0455576926
 20
3.7638942057
 30
0.0
 11
5.0455576926
 21
3.8138942015
 31
0.0
  0
LINE
  5
45C
330
1F
100
AcDbEntity
  8
0
  6
Continuous
 62
     7
370
    30
100
AcDbLine
 10
5.3955576971
 20
5.5758942533
 30
0.0
 11
5.4455576974
 21
5.5758942533
 31
0.0
  0
LINE
  5
45D
330
1F
100
AcDbEntity
  8
0
  6
Continuous
 62
     7
370
    30
100
AcDbLine
 10
5.7955577019
 20
3.7638942057
 30
0.0
 11
5.7955577019
 21
3.8138942015
 31
0.0
  0
LINE
  5
45E
330
1F
100
AcDbEntity
  8
0
  6
Continuous
 62
     7
370
    30
100
AcDbLine
 10
5.0455576926
 20
3.7638942057
 30
0.0
 11
5.7955577019
 21
3.7638942057
 31
0.0
  0
LINE
  5
45F
330
1F
100
AcDbEntity
  8
0
  6
Continuous
 62
     7
370
    30
100
AcDbLine
 10
5.2959661149
 20
3.8138942015
 30
0.0
 11
5.0455576926
 21
3.8138942015
 31
0.0
  0
ARC
  5
460
330
1F
100
AcDbEntity
  8
0
  6
Continuous
 62
     7
370
    30
100
AcDbCircle
 10
5.2959661145
 20
3.8388942334
 30
0.0
 40
0.0249999999999995
100
AcDbArc
 50
270.0
 51
21.86614513
  0
ARC
  5
461
330
1F
100
AcDbEntity
  8
0
  6
Continuous
 62
     7
370
    30
100
AcDbCircle
 10
5.4205576972
 20
3.8888942334
 30
0.0
 40
0.1092500000000005
100
AcDbArc
 50
103.2283724921
 51
201.86614513
  0
LINE
  5
462
330
1F
100
AcDbEntity
  8
0
  6
Continuous
 62
     7
370
    30
100
AcDbLine
 10
5.3955576971
 20
4.836406401
 30
0.0
 11
5.3955576971
 21
3.9952453665
 31
0.0
  0
ARC
  5
463
330
1F
100
AcDbEntity
  8
0
  6
Continuous
 62
     7
370
    30
100
AcDbCircle
 10
5.3205576972
 20
4.8364063988
 30
0.0
 40
0.0750000000000002
100
AcDbArc
 50
0.0
 51
83.3002348222
  0
ARC
  5
464
330
1F
100
AcDbEntity
  8
0
  6
Continuous
 62
     7
370
    30
100
AcDbCircle
 10
5.3345576972
 20
4.9555869341
 30
0.0
 40
0.0450000000000004
100
AcDbArc
 50
180.0
 51
263.3002348222
  0
LINE
  5
465
330
1F
100
AcDbEntity
  8
0
  6
Continuous
 62
     7
370
    30
100
AcDbLine
 10
5.2895576989
 20
5.0308942376
 30
0.0
 11
5.2895576989
 21
4.9555869342
 31
0.0
  0
ARC
  5
466
330
1F
100
AcDbEntity
  8
0
  6
Continuous
 62
     7
370
    30
100
AcDbCircle
 10
5.2995576972
 20
5.0308942334
 30
0.0
 40
0.0099999999999998
100
AcDbArc
 50
90.0
 51
180.0
  0
LINE
  5
467
330
1F
100
AcDbEntity
  8
0
  6
Continuous
 62
     7
370
    30
100
AcDbLine
 10
5.305993709
 20
5.0408942312
 30
0.0
 11
5.2995577017
 21
5.0408942312
 31
0.0
  0
LINE
  5
468
330
1F
100
AcDbEntity
  8
0
  6
Continuous
 62
     7
370
    30
100
AcDbLine
 10
5.3395576946
 20
5.0008942337
 30
0.0
 11
5.305993709
 21
5.0408942312
 31
0.0
  0
LINE
  5
469
330
1F
100
AcDbEntity
  8
0
  6
Continuous
 62
     7
370
    30
100
AcDbLine
 10
5.3307413515
 20
4.9508942334
 30
0.0
 11
5.3395576946
 21
5.0008942337
 31
0.0
  0
LINE
  5
46A
330
1F
100
AcDbEntity
  8
0
  6
Continuous
 62
     7
370
    30
100
AcDbLine
 10
5.3955576971
 20
4.9508942334
 30
0.0
 11
5.3307413515
 21
4.9508942334
 31
0.0
  0
LINE
  5
46B
330
1F
100
AcDbEntity
  8
0
  6
Continuous
 62
     7
370
    30
100
AcDbLine
 10
5.3955576971
 20
5.5758942533
 30
0.0
 11
5.3955576971
 21
4.9508942334
 31
0.0
  0
LINE
  5
46C
330
1F
100
AcDbEntity
  8
0
  6
Continuous
 62
     7
370
    30
100
AcDbLine
 10
5.4455576974
 20
4.9508942334
 30
0.0
 11
5.4455576974
 21
5.5758942533
 31
0.0
  0
LINE
  5
46D
330
1F
100
AcDbEntity
  8
0
  6
Continuous
 62
     7
370
    30
100
AcDbLine
 10
5.510374043
 20
4.9508942334
 30
0.0
 11
5.4455576974
 21
4.9508942334
 31
0.0
  0
LINE
  5
46E
330
1F
100
AcDbEntity
  8
0
  6
Continuous
 62
     7
370
    30
100
AcDbLine
 10
5.5015576999
 20
5.0008942337
 30
0.0
 11
5.510374043
 21
4.9508942334
 31
0.0
  0
LINE
  5
46F
330
1F
100
AcDbEntity
  8
0
  6
Continuous
 62
     7
370
    30
100
AcDbLine
 10
5.5351216855
 20
5.0408942312
 30
0.0
 11
5.5015576999
 21
5.0008942337
 31
0.0
  0
LINE
  5
470
330
1F
100
AcDbEntity
  8
0
  6
Continuous
 62
     7
370
    30
100
AcDbLine
 10
5.5415576928
 20
5.0408942312
 30
0.0
 11
5.5351216855
 21
5.0408942312
 31
0.0
  0
ARC
  5
471
330
1F
100
AcDbEntity
  8
0
  6
Continuous
 62
     7
370
    30
100
AcDbCircle
 10
5.5415576972
 20
5.0308942334
 30
0.0
 40
0.0100000000000007
100
AcDbArc
 50
0.0
 51
90.0
  0
LINE
  5
472
330
1F
100
AcDbEntity
  8
0
  6
Continuous
 62
     7
370
    30
100
AcDbLine
 10
5.5515576956
 20
4.9555869342
 30
0.0
 11
5.5515576956
 21
5.0308942376
 31
0.0
  0
ARC
  5
473
330
1F
100
AcDbEntity
  8
0
  6
Continuous
 62
     7
370
    30
100
AcDbCircle
 10
5.5065576972
 20
4.9555869341
 30
0.0
 40
0.0450000000000004
100
AcDbArc
 50
276.6997651778
 51
0.0
  0
ARC
  5
474
330
1F
100
AcDbEntity
  8
0
  6
Continuous
 62
     7
370
    30
100
AcDbCircle
 10
5.5205576972
 20
4.8364063988
 30
0.0
 40
0.0750000000000002
100
AcDbArc
 50
96.6997651778
 51
180.0
  0
LINE
  5
475
330
1F
100
AcDbEntity
  8
0
  6
Continuous
 62
     7
370
    30
100
AcDbLine
 10
5.4455576974
 20
3.9481442039
 30
0.0
 11
5.4455576974
 21
4.836406401
 31
0.0
  0
LINE
  5
476
330
1F
100
AcDbEntity
  8
0
  6
Continuous
 62
     7
370
    30
100
AcDbLine
 10
5.4205576972
 20
3.9481442039
 30
0.0
 11
5.4455576974
 21
3.9481442039
 31
0.0
  0
ARC
  5
477
330
1F
100
AcDbEntity
  8
0
  6
Continuous
 62
     7
370
    30
100
AcDbCircle
 10
5.4205576972
 20
3.8888942334
 30
0.0
 40
0.0592500000000005
100
AcDbArc
 50
90.0
 51
346.9332707857
  0
ARC
  5
478
330
1F
100
AcDbEntity
  8
0
  6
Continuous
 62
     7
370
    30
100
AcDbCircle
 10
5.502626247
 20
3.8698465135
 30
0.0
 40
0.0250000000000003
100
AcDbArc
 50
346.9332707857
 51
166.9332707857
  0
ARC
  5
479
330
1F
100
AcDbEntity
  8
0
  6
Continuous
 62
     7
370
    30
100
AcDbCircle
 10
5.4205576972
 20
3.8888942334
 30
0.0
 40
0.1092499999999998
100
AcDbArc
 50
338.13385487
 51
346.9332707857
  0
ARC
  5
47A
330
1F
100
AcDbEntity
  8
0
  6
Continuous
 62
     7
370
    30
100
AcDbCircle
 10
5.54514928
 20
3.8388942334
 30
0.0
 40
0.0250000000000005
100
AcDbArc
 50
158.13385487
 51
270.0
  0
LINE
  5
47B
330
1F
100
AcDbEntity
  8
0
  6
Continuous
 62
     7
370
    30
100
AcDbLine
 10
5.7955577019
 20
3.8138942015
 30
0.0
 11
5.5451492796
 21
3.8138942015
 31
0.0
  0
LINE
  5
47C
330
1F
100
AcDbEntity
  8
0
  6
Continuous
 62
     7
370
    30
100
AcDbLine
 10
6.7955576531
 20
3.7638942057
 30
0.0
 11
6.7955576531
 21
3.8138942015
 31
0.0
  0
LINE
  5
47D
330
1F
100
AcDbEntity
  8
0
  6
Continuous
 62
     7
370
    30
100
AcDbLine
 10
7.0559937245
 20
5.0408942312
 30
0.0
 11
7.0495576256
 21
5.0408942312
 31
0.0
  0
LINE
  5
47E
330
1F
100
AcDbEntity
  8
0
  6
Continuous
 62
     7
370
    30
100
AcDbLine
 10
7.0895577101
 20
5.0008942337
 30
0.0
 11
7.0559937245
 21
5.0408942312
 31
0.0
  0
LINE
  5
47F
330
1F
100
AcDbEntity
  8
0
  6
Continuous
 62
     7
370
    30
100
AcDbLine
 10
7.1455577699
 20
4.9508942334
 30
0.0
 11
7.0807413853
 21
4.9508942334
 31
0.0
  0
LINE
  5
480
330
1F
100
AcDbEntity
  8
0
  6
Continuous
 62
     7
370
    30
100
AcDbLine
 10
7.1455577699
 20
5.5758942533
 30
0.0
 11
7.1455577699
 21
4.9508942334
 31
0.0
  0
LINE
  5
481
330
1F
100
AcDbEntity
  8
0
  6
Continuous
 62
     7
370
    30
100
AcDbLine
 10
7.1455577699
 20
5.5758942533
 30
0.0
 11
7.1955577656
 21
5.5758942533
 31
0.0
  0
LINE
  5
482
330
1F
100
AcDbEntity
  8
0
  6
Continuous
 62
     7
370
    30
100
AcDbLine
 10
7.2515576787
 20
5.0008942337
 30
0.0
 11
7.2603740035
 21
4.9508942334
 31
0.0
  0
LINE
  5
483
330
1F
100
AcDbEntity
  8
0
  6
Continuous
 62
     7
370
    30
100
AcDbLine
 10
7.2851216643
 20
5.0408942312
 30
0.0
 11
7.2515576787
 21
5.0008942337
 31
0.0
  0
LINE
  5
484
330
1F
100
AcDbEntity
  8
0
  6
Continuous
 62
     7
370
    30
100
AcDbLine
 10
7.2915577633
 20
5.0408942312
 30
0.0
 11
7.2851216643
 21
5.0408942312
 31
0.0
  0
ARC
  5
485
330
1F
100
AcDbEntity
  8
0
  6
Continuous
 62
     7
370
    30
100
AcDbCircle
 10
7.2915576972
 20
5.0308942334
 30
0.0
 40
0.0099999999999998
100
AcDbArc
 50
0.0
 51
90.0
  0
LINE
  5
486
330
1F
100
AcDbEntity
  8
0
  6
Continuous
 62
     7
370
    30
100
AcDbLine
 10
7.3015576744
 20
4.9555869342
 30
0.0
 11
7.3015576744
 21
5.0308942376
 31
0.0
  0
ARC
  5
487
330
1F
100
AcDbEntity
  8
0
  6
Continuous
 62
     7
370
    30
100
AcDbCircle
 10
7.2565576972
 20
4.9555869341
 30
0.0
 40
0.0450000000000004
100
AcDbArc
 50
276.6997651778
 51
0.0
  0
ARC
  5
488
330
1F
100
AcDbEntity
  8
0
  6
Continuous
 62
     7
370
    30
100
AcDbCircle
 10
7.2705576972
 20
4.8364063988
 30
0.0
 40
0.0750000000000002
100
AcDbArc
 50
96.6997651778
 51
180.0
  0
LINE
  5
489
330
1F
100
AcDbEntity
  8
0
  6
Continuous
 62
     7
370
    30
100
AcDbLine
 10
7.1955577656
 20
3.9481442039
 30
0.0
 11
7.1955577656
 21
4.836406401
 31
0.0
  0
LINE
  5
48A
330
1F
100
AcDbEntity
  8
0
  6
Continuous
 62
     7
370
    30
100
AcDbLine
 10
7.1705576944
 20
3.9481442039
 30
0.0
 11
7.1955577656
 21
3.9481442039
 31
0.0
  0
ARC
  5
48B
330
1F
100
AcDbEntity
  8
0
  6
Continuous
 62
     7
370
    30
100
AcDbCircle
 10
7.1705576972
 20
3.8888942334
 30
0.0
 40
0.059250000000001
100
AcDbArc
 50
90.0
 51
346.9332707857
  0
ARC
  5
48C
330
1F
100
AcDbEntity
  8
0
  6
Continuous
 62
     7
370
    30
100
AcDbCircle
 10
7.252626247
 20
3.8698465135
 30
0.0
 40
0.0250000000000003
100
AcDbArc
 50
346.9332707857
 51
166.9332707857
  0
ARC
  5
48D
330
1F
100
AcDbEntity
  8
0
  6
Continuous
 62
     7
370
    30
100
AcDbCircle
 10
7.1705576972
 20
3.8888942334
 30
0.0
 40
0.1092500000000007
100
AcDbArc
 50
338.13385487
 51
346.9332707857
  0
ARC
  5
48E
330
1F
100
AcDbEntity
  8
0
  6
Continuous
 62
     7
370
    30
100
AcDbCircle
 10
7.29514928
 20
3.8388942334
 30
0.0
 40
0.0249999999999996
100
AcDbArc
 50
158.13385487
 51
270.0
  0
LINE
  5
48F
330
1F
100
AcDbEntity
  8
0
  6
Continuous
 62
     7
370
    30
100
AcDbLine
 10
7.5455577357
 20
3.8138942015
 30
0.0
 11
7.2951492951
 21
3.8138942015
 31
0.0
  0
LINE
  5
490
330
1F
100
AcDbEntity
  8
0
  6
Continuous
 62
     7
370
    30
100
AcDbLine
 10
7.5455577357
 20
3.7638942057
 30
0.0
 11
7.5455577357
 21
3.8138942015
 31
0.0
  0
LINE
  5
491
330
1F
100
AcDbEntity
  8
0
  6
Continuous
 62
     7
370
    30
100
AcDbLine
 10
6.7955576531
 20
3.7638942057
 30
0.0
 11
7.5455577357
 21
3.7638942057
 31
0.0
  0
LINE
  5
492
330
1F
100
AcDbEntity
  8
0
  6
Continuous
 62
     7
370
    30
100
AcDbLine
 10
7.0459660937
 20
3.8138942015
 30
0.0
 11
6.7955576531
 21
3.8138942015
 31
0.0
  0
ARC
  5
493
330
1F
100
AcDbEntity
  8
0
  6
Continuous
 62
     7
370
    30
100
AcDbCircle
 10
7.0459661145
 20
3.8388942334
 30
0.0
 40
0.0249999999999996
100
AcDbArc
 50
270.0
 51
21.86614513
  0
ARC
  5
494
330
1F
100
AcDbEntity
  8
0
  6
Continuous
 62
     7
370
    30
100
AcDbCircle
 10
7.1705576972
 20
3.8888942334
 30
0.0
 40
0.1092499999999999
100
AcDbArc
 50
103.2283724921
 51
201.86614513
  0
LINE
  5
495
330
1F
100
AcDbEntity
  8
0
  6
Continuous
 62
     7
370
    30
100
AcDbLine
 10
7.1455577699
 20
4.836406401
 30
0.0
 11
7.1455577699
 21
3.9952453665
 31
0.0
  0
ARC
  5
496
330
1F
100
AcDbEntity
  8
0
  6
Continuous
 62
     7
370
    30
100
AcDbCircle
 10
7.0705576972
 20
4.8364063988
 30
0.0
 40
0.0750000000000011
100
AcDbArc
 50
0.0
 51
83.3002348222
  0
ARC
  5
497
330
1F
100
AcDbEntity
  8
0
  6
Continuous
 62
     7
370
    30
100
AcDbCircle
 10
7.0845576972
 20
4.9555869341
 30
0.0
 40
0.0450000000000008
100
AcDbArc
 50
180.0
 51
263.3002348222
  0
LINE
  5
498
330
1F
100
AcDbEntity
  8
0
  6
Continuous
 62
     7
370
    30
100
AcDbLine
 10
7.0395577144
 20
5.0308942376
 30
0.0
 11
7.0395577144
 21
4.9555869342
 31
0.0
  0
ARC
  5
499
330
1F
100
AcDbEntity
  8
0
  6
Continuous
 62
     7
370
    30
100
AcDbCircle
 10
7.0495576972
 20
5.0308942334
 30
0.0
 40
0.0100000000000007
100
AcDbArc
 50
90.0
 51
180.0
  0
LINE
  5
49A
330
1F
100
AcDbEntity
  8
0
  6
Continuous
 62
     7
370
    30
100
AcDbLine
 10
7.0807413853
 20
4.9508942334
 30
0.0
 11
7.0895577101
 21
5.0008942337
 31
0.0
  0
LINE
  5
49B
330
1F
100
AcDbEntity
  8
0
  6
Continuous
 62
     7
370
    30
100
AcDbLine
 10
7.1955577656
 20
4.9508942334
 30
0.0
 11
7.1955577656
 21
5.5758942533
 31
0.0
  0
LINE
  5
49C
330
1F
100
AcDbEntity
  8
0
  6
Continuous
 62
     7
370
    30
100
AcDbLine
 10
7.2603740035
 20
4.9508942334
 30
0.0
 11
7.1955577656
 21
4.9508942334
 31
0.0
  0
LINE
  5
49D
330
1F
100
AcDbEntity
  8
0
  6
Continuous
 62
     7
370
    30
100
AcDbLine
 10
8.5455576503
 20
3.8138942015
 30
0.0
 11
8.8955577671
 21
3.8138942015
 31
0.0
  0
LINE
  5
49E
330
1F
100
AcDbEntity
  8
0
  6
Continuous
 62
     7
370
    30
100
AcDbLine
 10
8.8955577671
 20
3.8138942015
 30
0.0
 11
8.8955577671
 21
3.9922760608
 31
0.0
  0
ARC
  5
49F
330
1F
100
AcDbEntity
  8
0
  6
Continuous
 62
     7
370
    30
100
AcDbCircle
 10
8.9685576972
 20
4.0758942334
 30
0.0
 40
0.1110000000000008
100
AcDbArc
 50
131.1214761682
 51
228.8785238318
  0
LINE
  5
4A0
330
1F
100
AcDbEntity
  8
0
  6
Continuous
 62
     7
370
    30
100
AcDbLine
 10
8.8955577671
 20
4.1595124088
 30
0.0
 11
8.8955577671
 21
4.836406401
 31
0.0
  0
ARC
  5
4A1
330
1F
100
AcDbEntity
  8
0
  6
Continuous
 62
     7
370
    30
100
AcDbCircle
 10
8.8205576972
 20
4.8364063988
 30
0.0
 40
0.0750000000000009
100
AcDbArc
 50
0.0
 51
83.3002348222
  0
ARC
  5
4A2
330
1F
100
AcDbEntity
  8
0
  6
Continuous
 62
     7
370
    30
100
AcDbCircle
 10
8.8345576972
 20
4.9555869341
 30
0.0
 40
0.0449999999999999
100
AcDbArc
 50
180.0
 51
263.3002348222
  0
LINE
  5
4A3
330
1F
100
AcDbEntity
  8
0
  6
Continuous
 62
     7
370
    30
100
AcDbLine
 10
8.7895577116
 20
4.9555869342
 30
0.0
 11
8.7895577116
 21
5.0308942376
 31
0.0
  0
ARC
  5
4A4
330
1F
100
AcDbEntity
  8
0
  6
Continuous
 62
     7
370
    30
100
AcDbCircle
 10
8.7995576972
 20
5.0308942334
 30
0.0
 40
0.0099999999999998
100
AcDbArc
 50
90.0
 51
180.0
  0
LINE
  5
4A5
330
1F
100
AcDbEntity
  8
0
  6
Continuous
 62
     7
370
    30
100
AcDbLine
 10
8.7995576227
 20
5.0408942312
 30
0.0
 11
8.8059935751
 21
5.0408942312
 31
0.0
  0
LINE
  5
4A6
330
1F
100
AcDbEntity
  8
0
  6
Continuous
 62
     7
370
    30
100
AcDbLine
 10
8.8059935751
 20
5.0408942312
 30
0.0
 11
8.8395575607
 21
5.0008942337
 31
0.0
  0
LINE
  5
4A7
330
1F
100
AcDbEntity
  8
0
  6
Continuous
 62
     7
370
    30
100
AcDbLine
 10
8.8395575607
 20
5.0008942337
 30
0.0
 11
8.8307412358
 21
4.9508942334
 31
0.0
  0
LINE
  5
4A8
330
1F
100
AcDbEntity
  8
0
  6
Continuous
 62
     7
370
    30
100
AcDbLine
 10
8.8307412358
 20
4.9508942334
 30
0.0
 11
8.8955577671
 21
4.9508942334
 31
0.0
  0
LINE
  5
4A9
330
1F
100
AcDbEntity
  8
0
  6
Continuous
 62
     7
370
    30
100
AcDbLine
 10
8.8955577671
 20
4.9508942334
 30
0.0
 11
8.8955577671
 21
5.5758942533
 31
0.0
  0
LINE
  5
4AA
330
1F
100
AcDbEntity
  8
0
  6
Continuous
 62
     7
370
    30
100
AcDbLine
 10
8.8955577671
 20
5.5758942533
 30
0.0
 11
8.9455576161
 21
5.5758942533
 31
0.0
  0
LINE
  5
4AB
330
1F
100
AcDbEntity
  8
0
  6
Continuous
 62
     7
370
    30
100
AcDbLine
 10
8.9455576161
 20
5.5758942533
 30
0.0
 11
8.9455576161
 21
4.1323920021
 31
0.0
  0
ARC
  5
4AC
330
1F
100
AcDbEntity
  8
0
  6
Continuous
 62
     7
370
    30
100
AcDbCircle
 10
8.9685576972
 20
4.0758942334
 30
0.0
 40
0.061
100
AcDbArc
 50
112.1510214415
 51
31.5198585799
  0
ARC
  5
4AD
330
1F
100
AcDbEntity
  8
0
  6
Continuous
 62
     7
370
    30
100
AcDbCircle
 10
9.0418691726
 20
4.1208545222
 30
0.0
 40
0.0249999999999992
100
AcDbArc
 50
31.5198585799
 51
211.5198585799
  0
ARC
  5
4AE
330
1F
100
AcDbEntity
  8
0
  6
Continuous
 62
     7
370
    30
100
AcDbCircle
 10
8.9685576972
 20
4.0758942334
 30
0.0
 40
0.1110000000000005
100
AcDbArc
 50
258.0412625374
 51
31.5198585799
  0
LINE
  5
4AF
330
1F
100
AcDbEntity
  8
0
  6
Continuous
 62
     7
370
    30
100
AcDbLine
 10
8.9455576161
 20
3.9673032693
 30
0.0
 11
8.9455576161
 21
3.8138942015
 31
0.0
  0
LINE
  5
4B0
330
1F
100
AcDbEntity
  8
0
  6
Continuous
 62
     7
370
    30
100
AcDbLine
 10
8.9455576161
 20
3.8138942015
 30
0.0
 11
9.6205576318
 21
3.8138942015
 31
0.0
  0
LINE
  5
4B1
330
1F
100
AcDbEntity
  8
0
  6
Continuous
 62
     7
370
    30
100
AcDbLine
 10
9.6205576318
 20
3.8138942015
 30
0.0
 11
9.6205576318
 21
3.8568942447
 31
0.0
  0
LINE
  5
4B2
330
1F
100
AcDbEntity
  8
0
  6
Continuous
 62
     7
370
    30
100
AcDbLine
 10
8.5455576503
 20
3.7638942057
 30
0.0
 11
9.6705577742
 21
3.7638942057
 31
0.0
  0
LINE
  5
4B3
330
1F
100
AcDbEntity
  8
0
  6
Continuous
 62
     7
370
    30
100
AcDbLine
 10
8.5455576503
 20
3.8138942015
 30
0.0
 11
8.5455576503
 21
3.7638942057
 31
0.0
  0
LINE
  5
4B4
330
1F
100
AcDbEntity
  8
0
  6
Continuous
 62
     7
370
    30
100
AcDbLine
 10
9.6205576318
 20
3.8568942447
 30
0.0
 11
9.6705577742
 21
3.8568942447
 31
0.0
  0
LINE
  5
4B5
330
1F
100
AcDbEntity
  8
0
  6
Continuous
 62
     7
370
    30
100
AcDbLine
 10
9.6705577742
 20
3.8568942447
 30
0.0
 11
9.6705577742
 21
3.7638942057
 31
0.0
  0
LINE
  5
4B6
330
1F
100
AcDbEntity
  8
0
  6
Continuous
 62
     7
370
    30
100
AcDbLine
 10
9.2393008628
 20
3.8722677405
 30
0.0
 11
9.4778144808
 21
3.8722677405
 31
0.0
  0
LINE
  5
4B7
330
1F
100
AcDbEntity
  8
0
  6
Continuous
 62
     7
370
    30
100
AcDbLine
 10
1.1705576203
 20
3.8568942447
 30
0.0
 11
1.2205577627
 21
3.8568942447
 31
0.0
  0
LINE
  5
4B8
330
1F
100
AcDbEntity
  8
0
  6
Continuous
 62
     7
370
    30
100
AcDbLine
 10
1.2205577627
 20
3.8568942447
 30
0.0
 11
1.2205577627
 21
3.8138942015
 31
0.0
  0
LINE
  5
4B9
330
1F
100
AcDbEntity
  8
0
  6
Continuous
 62
     7
370
    30
100
AcDbLine
 10
1.2205577627
 20
3.8138942015
 30
0.0
 11
1.8955577783
 21
3.8138942015
 31
0.0
  0
LINE
  5
4BA
330
1F
100
AcDbEntity
  8
0
  6
Continuous
 62
     7
370
    30
100
AcDbLine
 10
1.8955577783
 20
3.8138942015
 30
0.0
 11
1.8955577783
 21
3.9673032693
 31
0.0
  0
ARC
  5
4BB
330
1F
100
AcDbEntity
  8
0
  6
Continuous
 62
     7
370
    30
100
AcDbCircle
 10
1.8725576972
 20
4.0758942334
 30
0.0
 40
0.1109999999999999
100
AcDbArc
 50
148.4801414201
 51
281.9587374626
  0
ARC
  5
4BC
330
1F
100
AcDbEntity
  8
0
  6
Continuous
 62
     7
370
    30
100
AcDbCircle
 10
1.7992462218
 20
4.1208545222
 30
0.0
 40
0.025
100
AcDbArc
 50
328.4801414201
 51
148.4801414201
  0
ARC
  5
4BD
330
1F
100
AcDbEntity
  8
0
  6
Continuous
 62
     7
370
    30
100
AcDbCircle
 10
1.8725576972
 20
4.0758942334
 30
0.0
 40
0.0609999999999998
100
AcDbArc
 50
148.4801414201
 51
67.8489785585
  0
LINE
  5
4BE
330
1F
100
AcDbEntity
  8
0
  6
Continuous
 62
     7
370
    30
100
AcDbLine
 10
1.8955577783
 20
4.1323920021
 30
0.0
 11
1.8955577783
 21
5.5758942533
 31
0.0
  0
LINE
  5
4BF
330
1F
100
AcDbEntity
  8
0
  6
Continuous
 62
     7
370
    30
100
AcDbLine
 10
1.8955577783
 20
5.5758942533
 30
0.0
 11
1.9455576274
 21
5.5758942533
 31
0.0
  0
LINE
  5
4C0
330
1F
100
AcDbEntity
  8
0
  6
Continuous
 62
     7
370
    30
100
AcDbLine
 10
1.9455576274
 20
5.5758942533
 30
0.0
 11
1.9455576274
 21
4.9508942334
 31
0.0
  0
LINE
  5
4C1
330
1F
100
AcDbEntity
  8
0
  6
Continuous
 62
     7
370
    30
100
AcDbLine
 10
1.9455576274
 20
4.9508942334
 30
0.0
 11
2.0103741586
 21
4.9508942334
 31
0.0
  0
LINE
  5
4C2
330
1F
100
AcDbEntity
  8
0
  6
Continuous
 62
     7
370
    30
100
AcDbLine
 10
2.0103741586
 20
4.9508942334
 30
0.0
 11
2.0015578338
 21
5.0008942337
 31
0.0
  0
LINE
  5
4C3
330
1F
100
AcDbEntity
  8
0
  6
Continuous
 62
     7
370
    30
100
AcDbLine
 10
2.0015578338
 20
5.0008942337
 30
0.0
 11
2.0351218194
 21
5.0408942312
 31
0.0
  0
LINE
  5
4C4
330
1F
100
AcDbEntity
  8
0
  6
Continuous
 62
     7
370
    30
100
AcDbLine
 10
2.0351218194
 20
5.0408942312
 30
0.0
 11
2.0415577717
 21
5.0408942312
 31
0.0
  0
ARC
  5
4C5
330
1F
100
AcDbEntity
  8
0
  6
Continuous
 62
     7
370
    30
100
AcDbCircle
 10
2.0415576972
 20
5.0308942334
 30
0.0
 40
0.0100000000000002
100
AcDbArc
 50
0.0
 51
90.0
  0
LINE
  5
4C6
330
1F
100
AcDbEntity
  8
0
  6
Continuous
 62
     7
370
    30
100
AcDbLine
 10
2.0515576829
 20
5.0308942376
 30
0.0
 11
2.0515576829
 21
4.9555869342
 31
0.0
  0
ARC
  5
4C7
330
1F
100
AcDbEntity
  8
0
  6
Continuous
 62
     7
370
    30
100
AcDbCircle
 10
2.0065576972
 20
4.9555869341
 30
0.0
 40
0.0449999999999995
100
AcDbArc
 50
276.6997651778
 51
0.0
  0
ARC
  5
4C8
330
1F
100
AcDbEntity
  8
0
  6
Continuous
 62
     7
370
    30
100
AcDbCircle
 10
2.0205576972
 20
4.8364063988
 30
0.0
 40
0.0750000000000006
100
AcDbArc
 50
96.6997651778
 51
180.0
  0
LINE
  5
4C9
330
1F
100
AcDbEntity
  8
0
  6
Continuous
 62
     7
370
    30
100
AcDbLine
 10
1.9455576274
 20
4.836406401
 30
0.0
 11
1.9455576274
 21
4.1595124088
 31
0.0
  0
ARC
  5
4CA
330
1F
100
AcDbEntity
  8
0
  6
Continuous
 62
     7
370
    30
100
AcDbCircle
 10
1.8725576972
 20
4.0758942334
 30
0.0
 40
0.111
100
AcDbArc
 50
311.1214761682
 51
48.8785238318
  0
LINE
  5
4CB
330
1F
100
AcDbEntity
  8
0
  6
Continuous
 62
     7
370
    30
100
AcDbLine
 10
1.9455576274
 20
3.9922760608
 30
0.0
 11
1.9455576274
 21
3.8138942015
 31
0.0
  0
LINE
  5
4CC
330
1F
100
AcDbEntity
  8
0
  6
Continuous
 62
     7
370
    30
100
AcDbLine
 10
2.2955577442
 20
3.8138942015
 30
0.0
 11
2.2955577442
 21
3.7638942057
 31
0.0
  0
LINE
  5
4CD
330
1F
100
AcDbEntity
  8
0
  6
Continuous
 62
     7
370
    30
100
AcDbLine
 10
1.1705576203
 20
3.7638942057
 30
0.0
 11
2.2955577442
 21
3.7638942057
 31
0.0
  0
LINE
  5
4CE
330
1F
100
AcDbEntity
  8
0
  6
Continuous
 62
     7
370
    30
100
AcDbLine
 10
1.1705576203
 20
3.8568942447
 30
0.0
 11
1.1705576203
 21
3.7638942057
 31
0.0
  0
LINE
  5
4CF
330
1F
100
AcDbEntity
  8
0
  6
Continuous
 62
     7
370
    30
100
AcDbLine
 10
1.9455576274
 20
3.8138942015
 30
0.0
 11
2.2955577442
 21
3.8138942015
 31
0.0
  0
LINE
  5
4D0
330
1F
100
AcDbEntity
  8
0
  6
Continuous
 62
     7
370
    30
100
AcDbLine
 10
1.4825577227
 20
3.8722677405
 30
0.0
 11
1.6018145317
 21
3.8722677405
 31
0.0
  0
LINE
  5
4D1
330
1F
100
AcDbEntity
  8
0
  6
Continuous
 62
     7
370
    30
100
AcDbLine
 10
1.3633009137
 20
3.8722677405
 30
0.0
 11
1.4825577227
 21
3.8722677405
 31
0.0
  0
LINE
  5
4D2
330
1F
100
AcDbEntity
  8
0
  6
Continuous
 62
     7
370
    30
100
AcDbLine
 10
5.3325576963
 20
5.5758942533
 30
0.0
 11
5.3325576963
 21
5.0092365098
 31
0.0
  0
LINE
  5
4D3
330
1F
100
AcDbEntity
  8
0
  6
Continuous
 62
     7
370
    30
100
AcDbLine
 10
5.3325576963
 20
4.9611952603
 30
0.0
 11
5.3325576963
 21
4.9508942334
 31
0.0
  0
LINE
  5
4D4
330
1F
100
AcDbEntity
  8
0
  6
Continuous
 62
     7
370
    30
100
AcDbLine
 10
5.3325576963
 20
5.5758942533
 30
0.0
 11
5.3955576971
 21
5.5758942533
 31
0.0
  0
LINE
  5
4D5
330
1F
100
AcDbEntity
  8
0
  6
Continuous
 62
     7
370
    30
100
AcDbLine
 10
3.7585577101
 20
5.5758942533
 30
0.0
 11
3.6955576246
 21
5.5758942533
 31
0.0
  0
LINE
  5
4D6
330
1F
100
AcDbEntity
  8
0
  6
Continuous
 62
     7
370
    30
100
AcDbLine
 10
3.7585577101
 20
5.5758942533
 30
0.0
 11
3.7585577101
 21
5.0092365098
 31
0.0
  0
LINE
  5
4D7
330
1F
100
AcDbEntity
  8
0
  6
Continuous
 62
     7
370
    30
100
AcDbLine
 10
3.7585577101
 20
4.9611952603
 30
0.0
 11
3.7585577101
 21
4.9508942334
 31
0.0
  0
LINE
  5
4D8
330
1F
100
AcDbEntity
  8
0
  6
Continuous
 62
     7
370
    30
100
AcDbLine
 10
5.3175577013
 20
5.0758942319
 30
0.0
 11
5.3325576963
 21
5.0758942319
 31
0.0
  0
LINE
  5
4D9
330
1F
100
AcDbEntity
  8
0
  6
Continuous
 62
     7
370
    30
100
AcDbLine
 10
5.3325576963
 20
5.5758942533
 30
0.0
 11
5.3175577013
 21
5.5758942533
 31
0.0
  0
LINE
  5
4DA
330
1F
100
AcDbEntity
  8
0
  6
Continuous
 62
     7
370
    30
100
AcDbLine
 10
3.7735577235
 20
5.5758942533
 30
0.0
 11
3.7585577101
 21
5.5758942533
 31
0.0
  0
LINE
  5
4DB
330
1F
100
AcDbEntity
  8
0
  6
Continuous
 62
     7
370
    30
100
AcDbLine
 10
3.7585577101
 20
5.0758942319
 30
0.0
 11
3.7735577235
 21
5.0758942319
 31
0.0
  0
LINE
  5
4DC
330
1F
100
AcDbEntity
  8
0
  6
Continuous
 62
     7
370
    30
100
AcDbLine
 10
5.3175577013
 20
5.0758942319
 30
0.0
 11
4.6597977589
 21
5.0758942319
 31
0.0
  0
LINE
  5
4DD
330
1F
100
AcDbEntity
  8
0
  6
Continuous
 62
     7
370
    30
100
AcDbLine
 10
4.6428336082
 20
5.0758942319
 30
0.0
 11
4.4482817891
 21
5.0758942319
 31
0.0
  0
LINE
  5
4DE
330
1F
100
AcDbEntity
  8
0
  6
Continuous
 62
     7
370
    30
100
AcDbLine
 10
4.4313176384
 20
5.0758942319
 30
0.0
 11
3.7735577235
 21
5.0758942319
 31
0.0
  0
LINE
  5
4DF
330
1F
100
AcDbEntity
  8
0
  6
Continuous
 62
     7
370
    30
100
AcDbLine
 10
3.7735577235
 20
5.5758942533
 30
0.0
 11
3.8265577513
 21
5.5758942533
 31
0.0
  0
LINE
  5
4E0
330
1F
100
AcDbEntity
  8
0
  6
Continuous
 62
     7
370
    30
100
AcDbLine
 10
3.8265577513
 20
5.5918942285
 30
0.0
 11
3.8265577513
 21
5.5758942533
 31
0.0
  0
LINE
  5
4E1
330
1F
100
AcDbEntity
  8
0
  6
Continuous
 62
     7
370
    30
100
AcDbLine
 10
5.264557701
 20
5.5758942533
 30
0.0
 11
5.264557701
 21
5.5918942285
 31
0.0
  0
LINE
  5
4E2
330
1F
100
AcDbEntity
  8
0
  6
Continuous
 62
     7
370
    30
100
AcDbLine
 10
5.264557701
 20
5.5758942533
 30
0.0
 11
5.3175577013
 21
5.5758942533
 31
0.0
  0
LINE
  5
4E3
330
1F
100
AcDbEntity
  8
0
  6
Continuous
 62
     7
370
    30
100
AcDbLine
 10
5.264557701
 20
5.5918942285
 30
0.0
 11
5.264557701
 21
5.6698942541
 31
0.0
  0
LINE
  5
4E4
330
1F
100
AcDbEntity
  8
0
  6
Continuous
 62
     7
370
    30
100
AcDbLine
 10
3.8265577513
 20
5.6698942541
 30
0.0
 11
3.8265577513
 21
5.5918942285
 31
0.0
  0
LINE
  5
4E5
330
1F
100
AcDbEntity
  8
0
  6
Continuous
 62
     7
370
    30
100
AcDbLine
 10
3.8265577513
 20
5.6698942541
 30
0.0
 11
5.264557701
 21
5.6698942541
 31
0.0
  0
LINE
  5
4E6
330
1F
100
AcDbEntity
  8
0
  6
Continuous
 62
     7
370
    30
100
AcDbLine
 10
4.7955576773
 20
5.0418942297
 30
0.0
 11
4.7955576773
 21
5.0758942319
 31
0.0
  0
LINE
  5
4E7
330
1F
100
AcDbEntity
  8
0
  6
Continuous
 62
     7
370
    30
100
AcDbLine
 10
4.29555772
 20
5.0758942319
 30
0.0
 11
4.29555772
 21
5.0418942297
 31
0.0
  0
LINE
  5
4E8
330
1F
100
AcDbEntity
  8
0
  6
Continuous
 62
     7
370
    30
100
AcDbLine
 10
4.7955576773
 20
5.0418942297
 30
0.0
 11
4.7955576773
 21
5.0180568725
 31
0.0
  0
LINE
  5
4E9
330
1F
100
AcDbEntity
  8
0
  6
Continuous
 62
     7
370
    30
100
AcDbLine
 10
4.7955576773
 20
5.004942164
 30
0.0
 11
4.7955576773
 21
4.9638942338
 31
0.0
  0
LINE
  5
4EA
330
1F
100
AcDbEntity
  8
0
  6
Continuous
 62
     7
370
    30
100
AcDbLine
 10
4.7955576773
 20
4.9638942338
 30
0.0
 11
4.7335577002
 21
4.9638942338
 31
0.0
  0
LINE
  5
4EB
330
1F
100
AcDbEntity
  8
0
  6
Continuous
 62
     7
370
    30
100
AcDbLine
 10
4.6364384288
 20
4.9638942338
 30
0.0
 11
4.4719879085
 21
4.9638942338
 31
0.0
  0
LINE
  5
4EC
330
1F
100
AcDbEntity
  8
0
  6
Continuous
 62
     7
370
    30
100
AcDbLine
 10
4.3575576971
 20
4.9638942338
 30
0.0
 11
4.29555772
 21
4.9638942338
 31
0.0
  0
LINE
  5
4ED
330
1F
100
AcDbEntity
  8
0
  6
Continuous
 62
     7
370
    30
100
AcDbLine
 10
4.29555772
 20
4.9638942338
 30
0.0
 11
4.29555772
 21
5.004942164
 31
0.0
  0
LINE
  5
4EE
330
1F
100
AcDbEntity
  8
0
  6
Continuous
 62
     7
370
    30
100
AcDbLine
 10
4.29555772
 20
5.0180568725
 30
0.0
 11
4.29555772
 21
5.0418942297
 31
0.0
  0
LINE
  5
4EF
330
1F
100
AcDbEntity
  8
0
  6
Continuous
 62
     7
370
    30
100
AcDbLine
 10
3.58255769
 20
5.5758942533
 30
0.0
 11
3.6455576289
 21
5.5758942533
 31
0.0
  0
LINE
  5
4F0
330
1F
100
AcDbEntity
  8
0
  6
Continuous
 62
     7
370
    30
100
AcDbLine
 10
3.58255769
 20
5.5758942533
 30
0.0
 11
3.58255769
 21
5.0092365098
 31
0.0
  0
LINE
  5
4F1
330
1F
100
AcDbEntity
  8
0
  6
Continuous
 62
     7
370
    30
100
AcDbLine
 10
3.58255769
 20
4.9611952603
 30
0.0
 11
3.58255769
 21
4.9508942334
 31
0.0
  0
LINE
  5
4F2
330
1F
100
AcDbEntity
  8
0
  6
Continuous
 62
     7
370
    30
100
AcDbLine
 10
2.0085575663
 20
5.5758942533
 30
0.0
 11
1.9455576274
 21
5.5758942533
 31
0.0
  0
LINE
  5
4F3
330
1F
100
AcDbEntity
  8
0
  6
Continuous
 62
     7
370
    30
100
AcDbLine
 10
2.0085575663
 20
5.5758942533
 30
0.0
 11
2.0085575663
 21
5.0092365098
 31
0.0
  0
LINE
  5
4F4
330
1F
100
AcDbEntity
  8
0
  6
Continuous
 62
     7
370
    30
100
AcDbLine
 10
2.0085575663
 20
4.9611952603
 30
0.0
 11
2.0085575663
 21
4.9508942334
 31
0.0
  0
LINE
  5
4F5
330
1F
100
AcDbEntity
  8
0
  6
Continuous
 62
     7
370
    30
100
AcDbLine
 10
3.5675576766
 20
5.0758942319
 30
0.0
 11
3.58255769
 21
5.0758942319
 31
0.0
  0
LINE
  5
4F6
330
1F
100
AcDbEntity
  8
0
  6
Continuous
 62
     7
370
    30
100
AcDbLine
 10
3.58255769
 20
5.5758942533
 30
0.0
 11
3.5675576766
 21
5.5758942533
 31
0.0
  0
LINE
  5
4F7
330
1F
100
AcDbEntity
  8
0
  6
Continuous
 62
     7
370
    30
100
AcDbLine
 10
2.0235575797
 20
5.5758942533
 30
0.0
 11
2.0085575663
 21
5.5758942533
 31
0.0
  0
LINE
  5
4F8
330
1F
100
AcDbEntity
  8
0
  6
Continuous
 62
     7
370
    30
100
AcDbLine
 10
2.0085575663
 20
5.0758942319
 30
0.0
 11
2.0235575797
 21
5.0758942319
 31
0.0
  0
LINE
  5
4F9
330
1F
100
AcDbEntity
  8
0
  6
Continuous
 62
     7
370
    30
100
AcDbLine
 10
3.5145576488
 20
5.5918942285
 30
0.0
 11
3.5145576488
 21
5.6698942541
 31
0.0
  0
LINE
  5
4FA
330
1F
100
AcDbEntity
  8
0
  6
Continuous
 62
     7
370
    30
100
AcDbLine
 10
2.0765576074
 20
5.6698942541
 30
0.0
 11
2.0765576074
 21
5.5918942285
 31
0.0
  0
LINE
  5
4FB
330
1F
100
AcDbEntity
  8
0
  6
Continuous
 62
     7
370
    30
100
AcDbLine
 10
2.0765576074
 20
5.6698942541
 30
0.0
 11
3.5145576488
 21
5.6698942541
 31
0.0
  0
LINE
  5
4FC
330
1F
100
AcDbEntity
  8
0
  6
Continuous
 62
     7
370
    30
100
AcDbLine
 10
3.5675576766
 20
5.0758942319
 30
0.0
 11
2.9097976884
 21
5.0758942319
 31
0.0
  0
LINE
  5
4FD
330
1F
100
AcDbEntity
  8
0
  6
Continuous
 62
     7
370
    30
100
AcDbLine
 10
2.8928335377
 20
5.0758942319
 30
0.0
 11
2.6982818652
 21
5.0758942319
 31
0.0
  0
LINE
  5
4FE
330
1F
100
AcDbEntity
  8
0
  6
Continuous
 62
     7
370
    30
100
AcDbLine
 10
2.6813177145
 20
5.0758942319
 30
0.0
 11
2.0235575797
 21
5.0758942319
 31
0.0
  0
LINE
  5
4FF
330
1F
100
AcDbEntity
  8
0
  6
Continuous
 62
     7
370
    30
100
AcDbLine
 10
2.0235575797
 20
5.5758942533
 30
0.0
 11
2.0765576074
 21
5.5758942533
 31
0.0
  0
LINE
  5
500
330
1F
100
AcDbEntity
  8
0
  6
Continuous
 62
     7
370
    30
100
AcDbLine
 10
2.0765576074
 20
5.5918942285
 30
0.0
 11
2.0765576074
 21
5.5758942533
 31
0.0
  0
LINE
  5
501
330
1F
100
AcDbEntity
  8
0
  6
Continuous
 62
     7
370
    30
100
AcDbLine
 10
3.5145576488
 20
5.5758942533
 30
0.0
 11
3.5145576488
 21
5.5918942285
 31
0.0
  0
LINE
  5
502
330
1F
100
AcDbEntity
  8
0
  6
Continuous
 62
     7
370
    30
100
AcDbLine
 10
3.5145576488
 20
5.5758942533
 30
0.0
 11
3.5675576766
 21
5.5758942533
 31
0.0
  0
LINE
  5
503
330
1F
100
AcDbEntity
  8
0
  6
Continuous
 62
     7
370
    30
100
AcDbLine
 10
3.0455576801
 20
5.0418942297
 30
0.0
 11
3.0455576801
 21
5.0758942319
 31
0.0
  0
LINE
  5
504
330
1F
100
AcDbEntity
  8
0
  6
Continuous
 62
     7
370
    30
100
AcDbLine
 10
2.5455575761
 20
5.0758942319
 30
0.0
 11
2.5455575761
 21
5.0418942297
 31
0.0
  0
LINE
  5
505
330
1F
100
AcDbEntity
  8
0
  6
Continuous
 62
     7
370
    30
100
AcDbLine
 10
3.0455576801
 20
5.0418942297
 30
0.0
 11
3.0455576801
 21
5.0180568725
 31
0.0
  0
LINE
  5
506
330
1F
100
AcDbEntity
  8
0
  6
Continuous
 62
     7
370
    30
100
AcDbLine
 10
3.0455576801
 20
5.004942164
 30
0.0
 11
3.0455576801
 21
4.9638942338
 31
0.0
  0
LINE
  5
507
330
1F
100
AcDbEntity
  8
0
  6
Continuous
 62
     7
370
    30
100
AcDbLine
 10
3.0455576801
 20
4.9638942338
 30
0.0
 11
2.983557703
 21
4.9638942338
 31
0.0
  0
LINE
  5
508
330
1F
100
AcDbEntity
  8
0
  6
Continuous
 62
     7
370
    30
100
AcDbLine
 10
2.8864383583
 20
4.9638942338
 30
0.0
 11
2.7219879113
 21
4.9638942338
 31
0.0
  0
LINE
  5
509
330
1F
100
AcDbEntity
  8
0
  6
Continuous
 62
     7
370
    30
100
AcDbLine
 10
2.6075575533
 20
4.9638942338
 30
0.0
 11
2.5455575761
 21
4.9638942338
 31
0.0
  0
LINE
  5
50A
330
1F
100
AcDbEntity
  8
0
  6
Continuous
 62
     7
370
    30
100
AcDbLine
 10
2.5455575761
 20
4.9638942338
 30
0.0
 11
2.5455575761
 21
5.004942164
 31
0.0
  0
LINE
  5
50B
330
1F
100
AcDbEntity
  8
0
  6
Continuous
 62
     7
370
    30
100
AcDbLine
 10
2.5455575761
 20
5.0180568725
 30
0.0
 11
2.5455575761
 21
5.0418942297
 31
0.0
  0
LINE
  5
50C
330
1F
100
AcDbEntity
  8
0
  6
Continuous
 62
     7
370
    30
100
AcDbLine
 10
8.8325578282
 20
5.5758942533
 30
0.0
 11
8.8325578282
 21
5.0092365098
 31
0.0
  0
LINE
  5
50D
330
1F
100
AcDbEntity
  8
0
  6
Continuous
 62
     7
370
    30
100
AcDbLine
 10
8.8325578282
 20
4.9611952603
 30
0.0
 11
8.8325578282
 21
4.9508942334
 31
0.0
  0
LINE
  5
50E
330
1F
100
AcDbEntity
  8
0
  6
Continuous
 62
     7
370
    30
100
AcDbLine
 10
8.8325578282
 20
5.5758942533
 30
0.0
 11
8.8955577671
 21
5.5758942533
 31
0.0
  0
LINE
  5
50F
330
1F
100
AcDbEntity
  8
0
  6
Continuous
 62
     7
370
    30
100
AcDbLine
 10
7.2585577045
 20
5.5758942533
 30
0.0
 11
7.1955577656
 21
5.5758942533
 31
0.0
  0
LINE
  5
510
330
1F
100
AcDbEntity
  8
0
  6
Continuous
 62
     7
370
    30
100
AcDbLine
 10
7.2585577045
 20
5.5758942533
 30
0.0
 11
7.2585577045
 21
5.0092365098
 31
0.0
  0
LINE
  5
511
330
1F
100
AcDbEntity
  8
0
  6
Continuous
 62
     7
370
    30
100
AcDbLine
 10
7.2585577045
 20
4.9611952603
 30
0.0
 11
7.2585577045
 21
4.9508942334
 31
0.0
  0
LINE
  5
512
330
1F
100
AcDbEntity
  8
0
  6
Continuous
 62
     7
370
    30
100
AcDbLine
 10
8.8175578148
 20
5.0758942319
 30
0.0
 11
8.8325578282
 21
5.0758942319
 31
0.0
  0
LINE
  5
513
330
1F
100
AcDbEntity
  8
0
  6
Continuous
 62
     7
370
    30
100
AcDbLine
 10
8.8325578282
 20
5.5758942533
 30
0.0
 11
8.8175578148
 21
5.5758942533
 31
0.0
  0
LINE
  5
514
330
1F
100
AcDbEntity
  8
0
  6
Continuous
 62
     7
370
    30
100
AcDbLine
 10
7.2735577179
 20
5.5758942533
 30
0.0
 11
7.2585577045
 21
5.5758942533
 31
0.0
  0
LINE
  5
515
330
1F
100
AcDbEntity
  8
0
  6
Continuous
 62
     7
370
    30
100
AcDbLine
 10
7.2585577045
 20
5.0758942319
 30
0.0
 11
7.2735577179
 21
5.0758942319
 31
0.0
  0
LINE
  5
516
330
1F
100
AcDbEntity
  8
0
  6
Continuous
 62
     7
370
    30
100
AcDbLine
 10
8.8175578148
 20
5.0758942319
 30
0.0
 11
8.15979768
 21
5.0758942319
 31
0.0
  0
LINE
  5
517
330
1F
100
AcDbEntity
  8
0
  6
Continuous
 62
     7
370
    30
100
AcDbLine
 10
8.1428335293
 20
5.0758942319
 30
0.0
 11
7.9482818568
 21
5.0758942319
 31
0.0
  0
LINE
  5
518
330
1F
100
AcDbEntity
  8
0
  6
Continuous
 62
     7
370
    30
100
AcDbLine
 10
7.9313177061
 20
5.0758942319
 30
0.0
 11
7.2735577179
 21
5.0758942319
 31
0.0
  0
LINE
  5
519
330
1F
100
AcDbEntity
  8
0
  6
Continuous
 62
     7
370
    30
100
AcDbLine
 10
7.2735577179
 20
5.5758942533
 30
0.0
 11
7.3265577456
 21
5.5758942533
 31
0.0
  0
LINE
  5
51A
330
1F
100
AcDbEntity
  8
0
  6
Continuous
 62
     7
370
    30
100
AcDbLine
 10
7.3265577456
 20
5.5918942285
 30
0.0
 11
7.3265577456
 21
5.5758942533
 31
0.0
  0
LINE
  5
51B
330
1F
100
AcDbEntity
  8
0
  6
Continuous
 62
     7
370
    30
100
AcDbLine
 10
8.7645577871
 20
5.5758942533
 30
0.0
 11
8.7645577871
 21
5.5918942285
 31
0.0
  0
LINE
  5
51C
330
1F
100
AcDbEntity
  8
0
  6
Continuous
 62
     7
370
    30
100
AcDbLine
 10
8.7645577871
 20
5.5758942533
 30
0.0
 11
8.8175578148
 21
5.5758942533
 31
0.0
  0
LINE
  5
51D
330
1F
100
AcDbEntity
  8
0
  6
Continuous
 62
     7
370
    30
100
AcDbLine
 10
8.7645577871
 20
5.5918942285
 30
0.0
 11
8.7645577871
 21
5.6698942541
 31
0.0
  0
LINE
  5
51E
330
1F
100
AcDbEntity
  8
0
  6
Continuous
 62
     7
370
    30
100
AcDbLine
 10
7.3265577456
 20
5.6698942541
 30
0.0
 11
7.3265577456
 21
5.5918942285
 31
0.0
  0
LINE
  5
51F
330
1F
100
AcDbEntity
  8
0
  6
Continuous
 62
     7
370
    30
100
AcDbLine
 10
7.3265577456
 20
5.6698942541
 30
0.0
 11
8.7645577871
 21
5.6698942541
 31
0.0
  0
LINE
  5
520
330
1F
100
AcDbEntity
  8
0
  6
Continuous
 62
     7
370
    30
100
AcDbLine
 10
8.2955578183
 20
5.0418942297
 30
0.0
 11
8.2955578183
 21
5.0758942319
 31
0.0
  0
LINE
  5
521
330
1F
100
AcDbEntity
  8
0
  6
Continuous
 62
     7
370
    30
100
AcDbLine
 10
7.7955577144
 20
5.0758942319
 30
0.0
 11
7.7955577144
 21
5.0418942297
 31
0.0
  0
LINE
  5
522
330
1F
100
AcDbEntity
  8
0
  6
Continuous
 62
     7
370
    30
100
AcDbLine
 10
8.2955578183
 20
5.0418942297
 30
0.0
 11
8.2955578183
 21
5.0180568725
 31
0.0
  0
LINE
  5
523
330
1F
100
AcDbEntity
  8
0
  6
Continuous
 62
     7
370
    30
100
AcDbLine
 10
8.2955578183
 20
5.004942164
 30
0.0
 11
8.2955578183
 21
4.9638942338
 31
0.0
  0
LINE
  5
524
330
1F
100
AcDbEntity
  8
0
  6
Continuous
 62
     7
370
    30
100
AcDbLine
 10
8.2955578183
 20
4.9638942338
 30
0.0
 11
8.2335578412
 21
4.9638942338
 31
0.0
  0
LINE
  5
525
330
1F
100
AcDbEntity
  8
0
  6
Continuous
 62
     7
370
    30
100
AcDbLine
 10
8.1364383498
 20
4.9638942338
 30
0.0
 11
7.9719879029
 21
4.9638942338
 31
0.0
  0
LINE
  5
526
330
1F
100
AcDbEntity
  8
0
  6
Continuous
 62
     7
370
    30
100
AcDbLine
 10
7.8575576915
 20
4.9638942338
 30
0.0
 11
7.7955577144
 21
4.9638942338
 31
0.0
  0
LINE
  5
527
330
1F
100
AcDbEntity
  8
0
  6
Continuous
 62
     7
370
    30
100
AcDbLine
 10
7.7955577144
 20
4.9638942338
 30
0.0
 11
7.7955577144
 21
5.004942164
 31
0.0
  0
LINE
  5
528
330
1F
100
AcDbEntity
  8
0
  6
Continuous
 62
     7
370
    30
100
AcDbLine
 10
7.7955577144
 20
5.0180568725
 30
0.0
 11
7.7955577144
 21
5.0418942297
 31
0.0
  0
LINE
  5
529
330
1F
100
AcDbEntity
  8
0
  6
Continuous
 62
     7
370
    30
100
AcDbLine
 10
6.0455577172
 20
5.0268942346
 30
0.0
 11
6.0455577172
 21
5.0180568725
 31
0.0
  0
LINE
  5
52A
330
1F
100
AcDbEntity
  8
0
  6
Continuous
 62
     7
370
    30
100
AcDbLine
 10
6.0455577172
 20
5.004942164
 30
0.0
 11
6.0455577172
 21
4.9638942338
 31
0.0
  0
LINE
  5
52B
330
1F
100
AcDbEntity
  8
0
  6
Continuous
 62
     7
370
    30
100
AcDbLine
 10
6.5455576745
 20
5.0268942346
 30
0.0
 11
6.5455576745
 21
5.0180568725
 31
0.0
  0
LINE
  5
52C
330
1F
100
AcDbEntity
  8
0
  6
Continuous
 62
     7
370
    30
100
AcDbLine
 10
6.5455576745
 20
5.004942164
 30
0.0
 11
6.5455576745
 21
4.9638942338
 31
0.0
  0
LINE
  5
52D
330
1F
100
AcDbEntity
  8
0
  6
Continuous
 62
     7
370
    30
100
AcDbLine
 10
6.5455576745
 20
5.0268942346
 30
0.0
 11
6.5211163968
 21
5.0268942346
 31
0.0
  0
LINE
  5
52E
330
1F
100
AcDbEntity
  8
0
  6
Continuous
 62
     7
370
    30
100
AcDbLine
 10
6.0699989948
 20
5.0268942346
 30
0.0
 11
6.0455577172
 21
5.0268942346
 31
0.0
  0
LINE
  5
52F
330
1F
100
AcDbEntity
  8
0
  6
Continuous
 62
     7
370
    30
100
AcDbLine
 10
6.5455576745
 20
4.9638942338
 30
0.0
 11
6.4835576974
 21
4.9638942338
 31
0.0
  0
LINE
  5
530
330
1F
100
AcDbEntity
  8
0
  6
Continuous
 62
     7
370
    30
100
AcDbLine
 10
6.1075576943
 20
4.9638942338
 30
0.0
 11
6.0455577172
 21
4.9638942338
 31
0.0
  0
LINE
  5
531
330
1F
100
AcDbEntity
  8
0
  6
Continuous
 62
     7
370
    30
100
AcDbLine
 10
7.0825576843
 20
5.5758942533
 30
0.0
 11
7.0825576843
 21
5.0092365098
 31
0.0
  0
LINE
  5
532
330
1F
100
AcDbEntity
  8
0
  6
Continuous
 62
     7
370
    30
100
AcDbLine
 10
7.0825576843
 20
4.9611952603
 30
0.0
 11
7.0825576843
 21
4.9508942334
 31
0.0
  0
LINE
  5
533
330
1F
100
AcDbEntity
  8
0
  6
Continuous
 62
     7
370
    30
100
AcDbLine
 10
7.0825576843
 20
5.5758942533
 30
0.0
 11
7.1455577699
 21
5.5758942533
 31
0.0
  0
LINE
  5
534
330
1F
100
AcDbEntity
  8
0
  6
Continuous
 62
     7
370
    30
100
AcDbLine
 10
5.5085576982
 20
5.5758942533
 30
0.0
 11
5.5085576982
 21
5.0092365098
 31
0.0
  0
LINE
  5
535
330
1F
100
AcDbEntity
  8
0
  6
Continuous
 62
     7
370
    30
100
AcDbLine
 10
5.5085576982
 20
4.9611952603
 30
0.0
 11
5.5085576982
 21
4.9508942334
 31
0.0
  0
LINE
  5
536
330
1F
100
AcDbEntity
  8
0
  6
Continuous
 62
     7
370
    30
100
AcDbLine
 10
5.5085576982
 20
5.5758942533
 30
0.0
 11
5.4455576974
 21
5.5758942533
 31
0.0
  0
LINE
  5
537
330
1F
100
AcDbEntity
  8
0
  6
Continuous
 62
     7
370
    30
100
AcDbLine
 10
6.0455577172
 20
5.0418942297
 30
0.0
 11
6.0455577172
 21
5.0268942346
 31
0.0
  0
LINE
  5
538
330
1F
100
AcDbEntity
  8
0
  6
Continuous
 62
     7
370
    30
100
AcDbLine
 10
6.5455576745
 20
5.0268942346
 30
0.0
 11
6.5455576745
 21
5.0418942297
 31
0.0
  0
LINE
  5
539
330
1F
100
AcDbEntity
  8
0
  6
Continuous
 62
     7
370
    30
100
AcDbLine
 10
7.067557671
 20
5.0758942319
 30
0.0
 11
7.0825576843
 21
5.0758942319
 31
0.0
  0
LINE
  5
53A
330
1F
100
AcDbEntity
  8
0
  6
Continuous
 62
     7
370
    30
100
AcDbLine
 10
7.0825576843
 20
5.5758942533
 30
0.0
 11
7.067557671
 21
5.5758942533
 31
0.0
  0
LINE
  5
53B
330
1F
100
AcDbEntity
  8
0
  6
Continuous
 62
     7
370
    30
100
AcDbLine
 10
5.5235576932
 20
5.5758942533
 30
0.0
 11
5.5085576982
 21
5.5758942533
 31
0.0
  0
LINE
  5
53C
330
1F
100
AcDbEntity
  8
0
  6
Continuous
 62
     7
370
    30
100
AcDbLine
 10
5.5085576982
 20
5.0758942319
 30
0.0
 11
5.5235576932
 21
5.0758942319
 31
0.0
  0
LINE
  5
53D
330
1F
100
AcDbEntity
  8
0
  6
Continuous
 62
     7
370
    30
100
AcDbLine
 10
6.0455577172
 20
5.0758942319
 30
0.0
 11
6.0455577172
 21
5.0418942297
 31
0.0
  0
LINE
  5
53E
330
1F
100
AcDbEntity
  8
0
  6
Continuous
 62
     7
370
    30
100
AcDbLine
 10
6.0455577172
 20
5.0758942319
 30
0.0
 11
5.5235576932
 21
5.0758942319
 31
0.0
  0
LINE
  5
53F
330
1F
100
AcDbEntity
  8
0
  6
Continuous
 62
     7
370
    30
100
AcDbLine
 10
5.5765576934
 20
5.5758942533
 30
0.0
 11
5.5235576932
 21
5.5758942533
 31
0.0
  0
LINE
  5
540
330
1F
100
AcDbEntity
  8
0
  6
Continuous
 62
     7
370
    30
100
AcDbLine
 10
5.5765576934
 20
5.5918942285
 30
0.0
 11
5.5765576934
 21
5.5758942533
 31
0.0
  0
LINE
  5
541
330
1F
100
AcDbEntity
  8
0
  6
Continuous
 62
     7
370
    30
100
AcDbLine
 10
7.0145576432
 20
5.5758942533
 30
0.0
 11
7.0145576432
 21
5.5918942285
 31
0.0
  0
LINE
  5
542
330
1F
100
AcDbEntity
  8
0
  6
Continuous
 62
     7
370
    30
100
AcDbLine
 10
7.0145576432
 20
5.5758942533
 30
0.0
 11
7.067557671
 21
5.5758942533
 31
0.0
  0
LINE
  5
543
330
1F
100
AcDbEntity
  8
0
  6
Continuous
 62
     7
370
    30
100
AcDbLine
 10
7.067557671
 20
5.0758942319
 30
0.0
 11
6.5455576745
 21
5.0758942319
 31
0.0
  0
LINE
  5
544
330
1F
100
AcDbEntity
  8
0
  6
Continuous
 62
     7
370
    30
100
AcDbLine
 10
6.5455576745
 20
5.0758942319
 30
0.0
 11
6.5455576745
 21
5.0418942297
 31
0.0
  0
LINE
  5
545
330
1F
100
AcDbEntity
  8
0
  6
Continuous
 62
     7
370
    30
100
AcDbLine
 10
7.0145576432
 20
5.5918942285
 30
0.0
 11
7.0145576432
 21
5.6698942541
 31
0.0
  0
LINE
  5
546
330
1F
100
AcDbEntity
  8
0
  6
Continuous
 62
     7
370
    30
100
AcDbLine
 10
5.5765576934
 20
5.6698942541
 30
0.0
 11
5.5765576934
 21
5.5918942285
 31
0.0
  0
LINE
  5
547
330
1F
100
AcDbEntity
  8
0
  6
Continuous
 62
     7
370
    30
100
AcDbLine
 10
5.5765576934
 20
5.6698942541
 30
0.0
 11
7.0145576432
 21
5.6698942541
 31
0.0
  0
LINE
  5
548
330
1F
100
AcDbEntity
  8
0
  6
Continuous
 62
     8
370
     0
100
AcDbLine
 10
5.3175577013
 20
5.5758942533
 30
0.0
 11
5.3175577013
 21
5.0758942319
 31
0.0
  0
LINE
  5
549
330
1F
100
AcDbEntity
  8
0
  6
Continuous
 62
     8
370
     0
100
AcDbLine
 10
3.7735577235
 20
5.0758942319
 30
0.0
 11
3.7735577235
 21
5.5758942533
 31
0.0
  0
LINE
  5
54A
330
1F
100
AcDbEntity
  8
0
  6
Continuous
 62
     8
370
     0
100
AcDbLine
 10
3.8265577513
 20
5.5918942285
 30
0.0
 11
5.264557701
 21
5.5918942285
 31
0.0
  0
LINE
  5
54B
330
1F
100
AcDbEntity
  8
0
  6
Continuous
 62
     8
370
     0
100
AcDbLine
 10
4.29555772
 20
5.0418942297
 30
0.0
 11
4.361898467
 21
5.0418942297
 31
0.0
  0
LINE
  5
54C
330
1F
100
AcDbEntity
  8
0
  6
Continuous
 62
     8
370
     0
100
AcDbLine
 10
4.3975013157
 20
5.0418942297
 30
0.0
 11
4.6936140816
 21
5.0418942297
 31
0.0
  0
LINE
  5
54D
330
1F
100
AcDbEntity
  8
0
  6
Continuous
 62
     8
370
     0
100
AcDbLine
 10
4.7292169303
 20
5.0418942297
 30
0.0
 11
4.7955576773
 21
5.0418942297
 31
0.0
  0
LINE
  5
54E
330
1F
100
AcDbEntity
  8
0
  6
Continuous
 62
     8
370
     0
100
AcDbLine
 10
3.5675576766
 20
5.5758942533
 30
0.0
 11
3.5675576766
 21
5.0758942319
 31
0.0
  0
LINE
  5
54F
330
1F
100
AcDbEntity
  8
0
  6
Continuous
 62
     8
370
     0
100
AcDbLine
 10
2.0235575797
 20
5.0758942319
 30
0.0
 11
2.0235575797
 21
5.5758942533
 31
0.0
  0
LINE
  5
550
330
1F
100
AcDbEntity
  8
0
  6
Continuous
 62
     8
370
     0
100
AcDbLine
 10
2.0765576074
 20
5.5918942285
 30
0.0
 11
3.5145576488
 21
5.5918942285
 31
0.0
  0
LINE
  5
551
330
1F
100
AcDbEntity
  8
0
  6
Continuous
 62
     8
370
     0
100
AcDbLine
 10
2.5455575761
 20
5.0418942297
 30
0.0
 11
2.6118985431
 21
5.0418942297
 31
0.0
  0
LINE
  5
552
330
1F
100
AcDbEntity
  8
0
  6
Continuous
 62
     8
370
     0
100
AcDbLine
 10
2.6475011718
 20
5.0418942297
 30
0.0
 11
2.9436142311
 21
5.0418942297
 31
0.0
  0
LINE
  5
553
330
1F
100
AcDbEntity
  8
0
  6
Continuous
 62
     8
370
     0
100
AcDbLine
 10
2.9792168598
 20
5.0418942297
 30
0.0
 11
3.0455576801
 21
5.0418942297
 31
0.0
  0
LINE
  5
554
330
1F
100
AcDbEntity
  8
0
  6
Continuous
 62
     8
370
     0
100
AcDbLine
 10
8.8175578148
 20
5.5758942533
 30
0.0
 11
8.8175578148
 21
5.0758942319
 31
0.0
  0
LINE
  5
555
330
1F
100
AcDbEntity
  8
0
  6
Continuous
 62
     8
370
     0
100
AcDbLine
 10
7.2735577179
 20
5.0758942319
 30
0.0
 11
7.2735577179
 21
5.5758942533
 31
0.0
  0
LINE
  5
556
330
1F
100
AcDbEntity
  8
0
  6
Continuous
 62
     8
370
     0
100
AcDbLine
 10
7.3265577456
 20
5.5918942285
 30
0.0
 11
8.7645577871
 21
5.5918942285
 31
0.0
  0
LINE
  5
557
330
1F
100
AcDbEntity
  8
0
  6
Continuous
 62
     8
370
     0
100
AcDbLine
 10
7.7955577144
 20
5.0418942297
 30
0.0
 11
7.8618985347
 21
5.0418942297
 31
0.0
  0
LINE
  5
558
330
1F
100
AcDbEntity
  8
0
  6
Continuous
 62
     8
370
     0
100
AcDbLine
 10
7.8975011634
 20
5.0418942297
 30
0.0
 11
8.1936142227
 21
5.0418942297
 31
0.0
  0
LINE
  5
559
330
1F
100
AcDbEntity
  8
0
  6
Continuous
 62
     8
370
     0
100
AcDbLine
 10
8.2292168514
 20
5.0418942297
 30
0.0
 11
8.2955578183
 21
5.0418942297
 31
0.0
  0
LINE
  5
55A
330
1F
100
AcDbEntity
  8
0
  6
Continuous
 62
     8
370
     0
100
AcDbLine
 10
6.5455576745
 20
5.0418942297
 30
0.0
 11
6.4955576787
 21
5.0418942297
 31
0.0
  0
LINE
  5
55B
330
1F
100
AcDbEntity
  8
0
  6
Continuous
 62
     8
370
     0
100
AcDbLine
 10
6.0955577129
 20
5.0418942297
 30
0.0
 11
6.0455577172
 21
5.0418942297
 31
0.0
  0
LINE
  5
55C
330
1F
100
AcDbEntity
  8
0
  6
Continuous
 62
     8
370
     0
100
AcDbLine
 10
7.067557671
 20
5.5758942533
 30
0.0
 11
7.067557671
 21
5.0758942319
 31
0.0
  0
LINE
  5
55D
330
1F
100
AcDbEntity
  8
0
  6
Continuous
 62
     8
370
     0
100
AcDbLine
 10
5.5235576932
 20
5.0758942319
 30
0.0
 11
5.5235576932
 21
5.5758942533
 31
0.0
  0
LINE
  5
55E
330
1F
100
AcDbEntity
  8
0
  6
Continuous
 62
     8
370
     0
100
AcDbLine
 10
5.5765576934
 20
5.5918942285
 30
0.0
 11
7.0145576432
 21
5.5918942285
 31
0.0
  0
MTEXT
  5
560
330
1F
100
AcDbEntity
  8
FORMAT
100
AcDbMText
 10
5.3424249248
 20
3.2851827558
 30
0.0
 40
0.1458333333
 41
0.0
 71
     2
 72
     1
  1
TITUS ML-39, BORDER TYPE 1A, 4-SLOTS
  7
SLDTEXTSTYLE0
 73
     1
 44
1.0
  0
ENDSEC
  0
SECTION
  2
OBJECTS
  0
DICTIONARY
  5
C
330
0
100
AcDbDictionary
281
     1
  3
ACAD_GROUP
350
D
  3
ACAD_LAYOUT
350
1A
  3
ACAD_MLINESTYLE
350
17
  3
ACAD_PLOTSETTINGS
350
19
  3
ACAD_PLOTSTYLENAME
350
E
  0
DICTIONARY
  5
D
102
{ACAD_REACTORS
330
C
102
}
330
C
100
AcDbDictionary
281
     1
  0
DICTIONARY
  5
1A
102
{ACAD_REACTORS
330
C
102
}
330
C
100
AcDbDictionary
281
     1
  3
Layout1
350
1E
  3
Layout2
350
26
  3
Model
350
22
  0
DICTIONARY
  5
17
102
{ACAD_REACTORS
330
C
102
}
330
C
100
AcDbDictionary
281
     1
  3
Standard
350
18
  0
DICTIONARY
  5
19
102
{ACAD_REACTORS
330
C
102
}
330
C
100
AcDbDictionary
281
     1
  0
ACDBDICTIONARYWDFLT
  5
E
102
{ACAD_REACTORS
330
C
102
}
330
C
100
AcDbDictionary
281
     1
  3
Normal
350
F
100
AcDbDictionaryWithDefault
340
F
  0
LAYOUT
  5
1E
102
{ACAD_REACTORS
330
1A
102
}
330
1A
100
AcDbPlotSettings
  1

  2
none_device
  4

  6

 40
0.0
 41
0.0
 42
0.0
 43
0.0
 44
0.0
 45
0.0
 46
0.0
 47
0.0
 48
0.0
 49
0.0
140
0.0
141
0.0
142
1.0
143
1.0
 70
   688
 72
     0
 73
     0
 74
     5
  7

 75
    16
147
1.0
148
0.0
149
0.0
100
AcDbLayout
  1
Layout1
 70
     1
 71
     1
 10
0.0
 20
0.0
 11
12.0
 21
9.0
 12
0.0
 22
0.0
 32
0.0
 14
1.0000000000E+20
 24
1.0000000000E+20
 34
1.0000000000E+20
 15
-1.0000000000E+20
 25
-1.0000000000E+20
 35
-1.0000000000E+20
146
0.0
 13
0.0
 23
0.0
 33
0.0
 16
1.0
 26
0.0
 36
0.0
 17
0.0
 27
1.0
 37
0.0
 76
     0
330
1B
  0
LAYOUT
  5
26
102
{ACAD_REACTORS
330
1A
102
}
330
1A
100
AcDbPlotSettings
  1

  2
none_device
  4

  6

 40
0.0
 41
0.0
 42
0.0
 43
0.0
 44
0.0
 45
0.0
 46
0.0
 47
0.0
 48
0.0
 49
0.0
140
0.0
141
0.0
142
1.0
143
1.0
 70
   688
 72
     0
 73
     0
 74
     5
  7

 75
    16
147
1.0
148
0.0
149
0.0
100
AcDbLayout
  1
Layout2
 70
     1
 71
     2
 10
0.0
 20
0.0
 11
0.0
 21
0.0
 12
0.0
 22
0.0
 32
0.0
 14
0.0
 24
0.0
 34
0.0
 15
0.0
 25
0.0
 35
0.0
146
0.0
 13
0.0
 23
0.0
 33
0.0
 16
1.0
 26
0.0
 36
0.0
 17
0.0
 27
1.0
 37
0.0
 76
     0
330
23
  0
LAYOUT
  5
22
102
{ACAD_REACTORS
330
1A
102
}
330
1A
100
AcDbPlotSettings
  1

  2
none_device
  4

  6

 40
0.0
 41
0.0
 42
0.0
 43
0.0
 44
0.0
 45
0.0
 46
0.0
 47
0.0
 48
0.0
 49
0.0
140
0.0
141
0.0
142
1.0
143
1.0
 70
  1712
 72
     0
 73
     0
 74
     0
  7

 75
     0
147
1.0
148
0.0
149
0.0
100
AcDbLayout
  1
Model
 70
     1
 71
     0
 10
0.0
 20
0.0
 11
11.0
 21
8.5
 12
0.0
 22
0.0
 32
0.0
 14
0.0
 24
0.0
 34
0.0
 15
11.0
 25
8.5
 35
0.0
146
0.0
 13
0.0
 23
0.0
 33
0.0
 16
1.0
 26
0.0
 36
0.0
 17
0.0
 27
1.0
 37
0.0
 76
     0
330
1F
331
29
  0
MLINESTYLE
  5
18
102
{ACAD_REACTORS
330
17
102
}
330
17
100
AcDbMlineStyle
  2
Standard
 70
     0
  3

 62
   256
 51
90.0
 52
90.0
 71
     2
 49
0.5
 62
   256
  6
BYLAYER
 49
-0.5
 62
   256
  6
BYLAYER
  0
ACDBPLACEHOLDER
  5
F
102
{ACAD_REACTORS
330
E
102
}
330
E
  0
ENDSEC
  0
EOF
